Afi - Girls Not Grey Chords & Tabs

 

Girls Not Grey Chords & Tabs

Afi Chords & Tabs

Version: 7 Type: Tab 0 ratings
1 star 2 stars 3 stars 4 stars 5 stars
comments

Girls Not Grey Tab

Girls Not Grey  By AFI

Intro/Outro 

|--------------------------------------------------------
|--------------------------------------------------------
|---------------------9---9-9----------------------------
|--------6---6-6------9---9-9----4---4-4-----6---6-6-----
|--------6---6-6------7---7-7----4---4-4-----6---6-6-----
|--------4---4-4-----------------2---2-2-----4---4-4-----   x3


|--------------------------------------------------------
|--------------------------------------------------------
|---------------------9---9-9----------------------------
|--------6---6-6------9---9-9----9-6-4-6-----------------
|--------6---6-6------7---7-7----9-6-4-6-----------------
|--------4---4-4-----------------7-4-2-4-----------------	  x1

Verse
|--------------------------------------------------------
|--------------------------------------------------------
|---------------------9---9-9----------------------------
|--------6---6-6------9---9-9----4---4-4-----6---6-6-----
|--------6---6-6------7---7-7----4---4-4-----6---6-6-----
|--------4---4-4-----------------2---2-2-----4---4-4-----   x2 (quietly)

(palm mute)
|------------------------------------------------------------
|------------------------------------------------------------
|---4--4--444----6---66---6-6------4---4--444-----3---33-3-3-
|---6--6--666----4---44---4-4------2---2--222-----4---44-4-4-
|------------------------------------------------------------
|------------------------------------------------------------

|---------------------------------------------------------------
|---------------------------------------------------------------
|---4--4--444----6---66---6-6-----6---6---666-------4--44---4-4-
|---6--6--666----4---44---4-4-----3---3---333-------2--22---2-2-
|---------------------------------------------------------------
|---------------------------------------------------------------


(clean)
|------------------------------------------------------------
|------------------------------------------------------------
|---4--4--444----6---66---6-6------4---4--444-----3---33-3-3-
|---6--6--666----4---44---4-4------2---2--222-----4---44-4-4-
|------------------------------------------------------------
|------------------------------------------------------------


|---------------------------------------------------------------
|---------------------------------------------------------------
|---4--4--444----6---66---6-6-----6---6---666-------4--44---4-4-
|---6--6--666----4---44---4-4-----3---3---333-------2--22---2-2-
|---------------------------------------------------------------
|---------------------------------------------------------------

Pre-Chorus
|----------------------------------
|----------------------------------
|----------------------------------
|---6--6666666666666666------------
|---6--6666666666666666------------
|---4--4444444444444444------------
get louder gradually


[ Tab from: http://www.guitartabs.cc/tabs/a/afi/girls_not_grey_tab_ver_7.html ]
Chorus
|-----------------------------------------------------------|
|-----------------------------------------------------------|
|---9---9-9-9-----------------------------------------------|
|---9---9-9-9-----9---9-9-----4---4-4-4-----6---6-6---------|
|---7---7-7-7-----9---9-9-----4---4-4-4-----6---6-6---------|
|-----------------7---7-7-----2---2-2-2-----4---4-4---------|   x3


|-----------------------------------------------------------|
|-----------------------------------------------------------|
|---9---9-9-9----------------------------------8-888888888--|
|---9---9-9-9-----9---9-9----------------------8-888888888--|
|---7---7-7-7-----9---9-9----------------------8-666666666--|
|-----------------7---7-7-----------------------------------|   x1

Verse

Pre-chorus

Chorus

Bridge
|----------------------------------------------------------------------------------
|----------------------------------------------------------------------------------
|6-6-666-----------------------------------------------6-6-666---------------------
|6-6-666---9-9-9---4-4-444---6-6-6----6-6-666--9-9-9---4-4-444--6-x-x-x------------
|4-4-444---9-9-9---4-4-444---6-6-6----4-4-444--9-9-9---4-4-444--6-x-x-x------------
|----------7-7-7---2-2-222---4-4-4-------------7-7-7---2-2-222--4-x-x-x------------

|--------------------------------------------------------------------------
|--------------------------------------------------------------------------
|------------------12-12-121212-----------------------6-6-666--------------
|-8----9---9-999---12-12-121212---9-9-999---9-9-999---6-6-666--9-9-999---4-
|-8----9---9-999---9---9--9-9-9---6-6-666---7-7-777---4-4-444--9-9-999---4-
|-6----7---7-777-----------------------------------------------7-7-777---2-

Then (clean)
|-------------------------|------------------------------|----------------------
|----4-----4--------4-----|-------4------4---------4-----|----4-----4--------4--
|------4-----3-4------3---|----------4------3-4------3---|------4-----3-4------3
|-6------6-------4--------|----6-------6---------5-------|--6-----6--------4----
|-------------------------|------------------------------|----------------------
|-------------------------|------------------------------|----------------------


|-----------------------------------------|
|----4-----4-----------4------4--------4--|
|------4-----3-4---------3------3---------|
|--6-----6-----------4------3-------1-----|
|-----------------------------------------|
|-----------------------------------------|

Then (distorted)
|--------------------------|-------------------------------|-------------------
|---4-----4----------4-----|-----4-----4--------7-----5----|---4-----4------4--
|-----4-----4-----------3--|-------4-----4--------4-----4--|-----4-----4------3
|6------6-----6---4--------|---6-----6-----6-6------6-----6|-6-----6-----64---
|--------------------------|-------------------------------|-------------------
|--------------------------|-------------------------------|-------------------

|-----------------------------------------------------------------------
|---4------4--------7-----7------7----5------5------5-------------------
|-----4------4--------4-----4------------4------4-----------8--6--4--3--
|6------6------6-6------6-----6-----6------6------6----6----------------
|-----------------------------------------------------------------------
|-----------------------------------------------------------------------

Pre-Chorus

Chorus

Outro
Comments