Afi - Girls Not Grey Chords & Tabs

 

Girls Not Grey Chords & Tabs

Afi Chords & Tabs

Version: 6 Type: Tab 0 ratings
1 star 2 stars 3 stars 4 stars 5 stars
comments

Girls Not Grey Tab

   
AFI - Girls Not Grey
From the album Sing The Sorrow.
Tuning: Eb

Intro:
eb|-------------------------------------------------|
Bb|-------------------------------------------------|
Gb|-----10-10-10---------------10-10-10-12-12-------|
Db|-7-7-10-10-10-5-5-7-7-7-7-7-10-10-10-12-12-7-7-7-|
Ab|-7-7-8--8--8--5-5-7-7-7-7-7-8--8--8--10-10-7-7-7-|
Eb|-5-5----------3-3-5-5-5-5-5----------------5-5-5-|

eb|-------------------------------------------------------|
Bb|-------------------------------------------------------|
Gb|-7h9-9--------------------7h9-9------------------------|
Db|-------10-10-10-5-5-7-7-7-------10-10-10-10-9-5-7------|
Ab|-----------------------------------------10-9-5-7-3b-0-|
Eb|-----------------------------------------8--7-3-5------|

Verses:

eb|-------------------------|
Bb|-------------------------|
Gb|-7-7-7-5-5-5-4-4-4-5-5-5-|
Db|-5-5-5-3-3-3-5-5-5-3-3-3-|
Ab|-0-0-0-0-0-0-0-0-0-0-0-0-|
Eb|-------------------------|

Chorus:

eb|------------------------|
Bb|------------------------|
Gb|-----10-10-10-----------|
Db|-7-7-10-10-10-5-5-7-7-7-|
Ab|-7-7-8--8--8--5-5-7-7-7-|
Eb|-5-5----------3-3-5-5-5-|

And on the last line of the chorus it switches to:

eb|-----------------------|
Bb|-----------------------|
Gb|-10-10-5-5-5-----------|
Db|-10-10-5-5-5-5-5-7-7-7-|
Ab|-8--8--3-3-3-5-5-7-7-7-|
Eb|-------------3-3-5-5-5-|

The middle clean part goes:
[ Tab from: http://www.guitartabs.cc/tabs/a/afi/girls_not_grey_tab_ver_6.html ]
eb|---0------0------0---|
Bb|-----0------0------0-|
Gb|---------------------|
Db|-7-----7-------5-----|
Ab|---------------------|
Eb|---------------------|

Then the middle distorted part goes...

eb|----12-----12-----12-----12------12---15-----13-----|
Bb|------13-----13-----13------13-----13---13-----13---|
Gb|-14------14-----12-----14------14----------14----14-|
Db|----------------------------------------------------|
Ab|----------------------------------------------------|
Eb|----------------------------------------------------|

Thats pretty much the whole song, Im sure there are some errors,
but making corrections is half the fun. Id put the order
but I didnt know what to call some things, and its kinda obvious
anyway. Here are the lyrics:

I'll lay me down tonight
Much further down
Swim in the calm tonight
This art does drown

(What follows) me as the whitest lace of light
(Will swallow whole) just begs to be imbrued?
What follows has lead me to this place
where I belong, with all erased

All insects sing tonight
The coldest sound
I'd send God's grace tonight
Could it be found?

(What follows) me as the whitest lace of light
(Will swallow whole) just begs to be imbrued?
What follows has lead me to this place
where I belong, with all erased

I'll lay me down tonight
Much further down
Watch stars go out tonight
On sinking ground

I'll lay me down, I'll lay me down

(What follows) me as the whitest lace of light
(Will swallow whole) just begs to be imbrued?
What follows has lead me to this place
where I belong, with all erased

What follows will swallow whole
What follows will swallow whole
Comments