Afi - Girls Not Grey Chords & Tabs

 

Girls Not Grey Chords & Tabs

Afi Chords & Tabs

Version: 5 Type: Tab 0 ratings
1 star 2 stars 3 stars 4 stars 5 stars
comments

Girls Not Grey Tab

Believe me, this is correct. It's outta Guitar World. Enjoy


e----------------------------------------------
b---5-5-5-5---8--8--8--8---3-3-3-3---5-5-5-5---
g---7-7-7-7--10-10-10-10---5-5-5-5---7-7-7-7---
d---7-7-7-7--10-10-10-10---5-5-5-5---7-7-7-7---
a---7-7-7-7---8--8--8--8---3-3-3-3---7-7-7-7---
e---5-5-5-5---8--8--8--8---3-3-3-3---5-5-5-5---

e----------------------------------------------------
b-------------8--8--8--8-----------------------------
g---5-5-5-5--10-10-10-10--12-12-12-12---14-14-14-14--
d---7-7-7-7--10-10-10-10--12-12-12-12---14-14-14-14--
a---7-7-7-7---8--8--8--8--10-10-10-10---12-12-12-12--
e---5-5-5-5---8--8--8--8--10-10-10-10---12-12-12-12--

Repeat again but on second time do this...

e----------------------------------------
b---5-5-5-5------------------------------
g---7-7-7-7---10-10-10-10----------------
d---7-7-7-7---10-10-10-10----------------
a---7-7-7-7---8--8--8--8-----10-9--5--3--
e---5-5-5-5---8--8--8--8-----8--7--3--5--

Verse
e-------------------------------------------------------
b-------------------------------------------------------
g--5-5-5-5-5-5-5-5--5-5-5-5---4-4-4-4-----5-5-5-5-5-5-5-
d--7-7-7-7-7-7-7-7--3-3-3-3---5-5-5-4-----7-7-7-7-7-7-7-
a--0-0-0-0-0-0-0-0--0-0-0-0---0-0-0-0-----0-0-0-0-0-0-0-
e-------------------------------------------------------

e------------------------
b------------------------
g--7-7-7-7---5-5-5-5-----
d--4-4-4-4---3-3-3-3-----
a--0-0-0-0---0-0-0-0-----
d------------------------

When davey starts singing do everything above palm muted.
[ Tab from: http://www.guitartabs.cc/tabs/a/afi/girls_not_grey_tab_ver_5.html ]
Chorus
e----------------------------------------------
b----------------------------------------------
g-10-10-10-------------------------------------
d-10-10-10--10-10-10-10-10---5-5-5-5--7-7-7-7--
a--8--8--8--10-10-10-10-10---5-5-5-5--7-7-7-7--
e--8--8--8---8--8--8--8--8---3-3-3-3--5-5-5-5--
 "What follows, me has the whitest lace...."

On fourth time do this
e-------------------------------------
b-------------------------------------
g-------------------16-16-16-16-16----
d--2-2-2--9-9-9-----x--x--x--x--x-----
a--2-2-2--7-7-7-----14-14-14-14-14----
e--0-0-0--7-7-7-----------------------

Interlude (clean)

e----0--------------0-----------0-------------0-------
b-------0---------------0-----------0-------------0---
g----------5---------------------------5--------------
d--7------------5-----------7--------------5----------
a-----------------------------------------------------
e-----------------------------------------------------

Ply until he starts singing than do this.

e-----12---------12----------12-----15----------
b--------13---------13----------13------13------
g--14--------14----------14-----------------14--
d-----------------------------------------------
a-----------------------------------------------
e-----------------------------------------------

e------12----------12-----------12----------
b---------13----------13------------12--13--
g--14----------14-----------12--------------
d-------------------------------------------
a-------------------------------------------
e-------------------------------------------

Repeat Chorus than end on this:\

e--------------
b--------------
g--------------
d--------------
a--10--9--5--7-
e---8--7--3--5-
Comments