Afi - Girls Not Grey Chords & Tabs

 

Girls Not Grey Chords & Tabs

Afi Chords & Tabs

Version: 1 Type: Tab 0 ratings
1 star 2 stars 3 stars 4 stars 5 stars
comments

Girls Not Grey Tab

Artist AFI
Title  Girls not grey
tabbed by Ricardo Legazpi febuary 12, 2003 Oobigslimrick1oO@aol.com
 

These are the basic power chords to playing this great great song
I've looked everywhere for this tab but had no luck so i tabbed it myself.
It might be missing some stuff but it helps so much..trust me just practice it
and hopefully someone will do a better one after reading this one.


Intro (Guitar 1)			0:01
E-----------------------------------------
B-----------------------------------------
G----------9-9-9-9---11-11-11-------------	4X
D--6-6-6---9-9-9-9---11-11-11--6-6-6-6----
A--6-6-6---7-7-7-7---9--9--9---6-6-6-6----
E--4-4-4-----------------------4-4-4-4----


    (Guitar 2 fill)     2X              final time 0:08
E-----------------------------------/--------------
B-----------------------------------/--------------
G-----------------------------------/--------------
D--6-6-6---9--9-9-9---8-8-8h9-8-6---/-----4--6^----
A-----------------------------------/--------------
E-----------------------------------/--------------



   (Guitar 2 fill) 0:16
E----------------
B----------------
G-13-12--9-8-----
D-13-12--9-8-----
A-11-10--7-6-----
E----------------
   
						0:41
0:24
                                        BIG ASS "NOTE":
VERSE (guitar 1)   4X              strum each chord 3 or 4 times
E--------------------------------------------------
B--------------------------------------------------
G--------------------------------------/------------
D--6---------4---------2-------4-------/-------6----
A--6---------4---------2-------4-------/-------6----last time(
E--4---------2-----------------2-------/-------4----


(Guitar 2 fill) do this twice before he starts singing
E----------------  then start scraping the "VERSE" chords
B----------------  finally when he starts singing.
G-13-12--9-8-----
D-13-12--9-8-----
A-11-10--7-6-----
E----------------

0:41					0:53
Pre- Chorus        3X                    final time
E------------------------------/-------------------
B------------------------------/-------------------
G--9------4--------------------/------------6------
D--9------4-------4-------6----/----9-------6------
A--7------2-------4-------6----/----9-------4------
E-----------------2-------4----/----7--------------

[ Tab from: http://www.guitartabs.cc/tabs/a/afi/girls_not_grey_tab.html ]
VERSE 2
E--------------------------------------------------
B--------------------------------------------------
G----------------------------------------/---------
D--6---------4---------2-------4---------/-----6---
A--6---------4---------2-------4---------/-----6---
E--4---------2-----------------2---------/-----4---

Pre-Chorus 2
E------------------------------/-------------------
B------------------------------/-------------------
G--9------4--------------------/------------6------
D--9------4-------4-------6----/----9-------6------
A--7------2-------4-------6----/----9-------4------
E-----------------2-------4----/----7--------------

1:42					1:49
CHORUS 				it slows down at the end
E-----(2X)-----------------(1X)---------------------
B---------------------------------------------------
G-----4----------------4----------9-----4------6----
D--6--4--4--6-6--------4--4--6-6--9--4--4------6----
A--6--2--4--6-6--------2--4--6-6--7--4--2------4----
E--4-----2--4-4-----------2--4-4-----2--------------

1:57
Slow Guitar picking Part(place fingers as shown and lift finger in 6 once
E-------------------------------/---12--11--9--7---  in a while listen to
B-------------------------------/------------------  song for timing.just 
G----6----4-------6----4-----6--/------------------  pick around, it sounds good
D--4------4-----4------4----4---/- do a the above
A--4------4-----4------4----4---/- ^^^^^^^^^^^^^^
E--x------------x-----------x---/- only when distorted picking comes in and only at
				   at the end of each riff
2:33
E------------------------------/-------------------
B------------------------------/-------------------
G--9------4--------------------/------------6------
D--9------4-------4-------6----/----9-------6------
A--7------2-------4-------6----/----9-------4------
E-----------------2-------4----/----7--------------


OUTRO..hint: play the intro   2:51
E-----------------------------------------
B-----------------------------------------
G----------9-9-9-9---11-11-11-------------	4X
D--6-6-6---9-9-9-9---11-11-11--6-6-6-6----
A--6-6-6---7-7-7-7---9--9--9---6-6-6-6----
E--4-4-4-----------------------4-4-4-4----      END 3:06

My work here is done..from L.A. comments welcomed at the adress above.Look out for the
Original band "HUSH" from south Central L.A. soon to be in your airways!!







Comments