Afi - Fishbowl Chords & Tabs

 

Fishbowl Chords & Tabs

Afi Chords & Tabs

Version: 1 Type: Tab 0 ratings
1 star 2 stars 3 stars 4 stars 5 stars
comments

Fishbowl Tab

   
-------------------------------------------------------------------------------
		               FISHBOWL - AFI
-------------------------------------------------------------------------------

tabbed by danc446
          Danc446@yahoo.com

Very easy, you could probably play it by ear, had it not been for the bridge...

INTRO
e|---------------------------------|
B|---------------------------------|
G|---------5-5-5-5-----------------|
D|-2-2-2-2-5-5-5-5-7-7-7-7-9-9-9-9-|
A|-2-2-2-2-3-3-3-3-7-7-7-7-9-9-9-9-|
E|-0-0-0-0---------5-5-5-5-7-7-7-7-|

VERSE
e|-----------------------------------------------------------------
B|-----------------------------------------------------------------
G|-9-9-9-9-9-9-9-9-5-5-5-5-7-7-7-7-9-9-9-9-9-9-9-9-5-5-5-5-4-4-4-4-
D|-9-9-9-9-9-9-9-9-5-5-5-5-7-7-7-7-9-9-9-9-9-9-9-9-5-5-5-5-0-0-0-0-
A|-7-7-7-7-7-7-7-7-3-3-3-3-5-5-5-5-7-7-7-7-7-7-7-7-3-3-3-3-2-2-2-2-
E|---------------------------------------------------------3-3-3-3-

e|---------------------------------------------------------|
B|---------------------------------------------------------|
G|-9-9-9-9-9-9-9-9-5-5-5-5-7-7-7-7-9-9-9-9-9-9-9-9-9-9-9-9-|
D|-9-9-9-9-9-9-9-9-5-5-5-5-7-7-7-7-9-9-9-9-9-9-9-9-9-9-9-9-|
A|-7-7-7-7-7-7-7-7-3-3-3-3-5-5-5-5-7-7-7-7-7-7-7-7-7-7-7-7-|
E|---------------------------------------------------------|
[ Tab from: http://www.guitartabs.cc/tabs/a/afi/fishbowl_tab.html ]
CHORUS
e|--------------------------------------------------------------------------|
B|--------------------------------------------------------------------------|
G|-9-9-9-9-12-12-12-12-7-7-7-7-7-7-7-7-7h9-9-9-12-12-12-12-7-7-7-7-12\11\10-|
D|-9-9-9-9-12-12-12-12-7-7-7-7-7-7-7-7-9-9-9-9-12-12-12-12-7-7-7-7-12\11\10-|
A|-7-7-7-7-10-10-10-10-5-5-5-5-5-5-5-5-7-7-7-7-10-10-10-10-5-5-5-5-10\-9\-8-|
E|--------------------------------------------------------------------------|

BRIDGE    PLAY QUICKLY
e|---------------------------------------------------------------------------|
B|---------------------------------------------------------------------------|
G|---------------------------------------------------------------------------|
D|-5-5-5-7-5---9--9--9-12--9-5-5-5-7-5---9--9--12--9-5-5-5-7-5---9--9--12--9-|
A|-7-7-7-7-7--10-10-10-10-10-7-7-7-7-7--10-10--10-10-7-7-7-7-7--10-10--10-10-|
E|---------------------------------------------------------------------------|
pm   ***         *****         ***         ***         ***         ***      

e|-------------------------------------------------------------|
B|-------------------------------------------------------------|
G|-------------------------------------------------------------|
D|-12--9-12-12--9-12--9-12-12--9-12--9-12-12--9-12--9-12-12--9-|
A|-10-10-10-10-10-10-10-10-10-10-10-10-10-10-10-10-10-10-10-10-|
E|-------------------------------------------------------------|

x Scratch, dead note
/ Slide up
\ Slide down
: Ring
===============================================================================
Comments