Afi - Fall Children Chords & Tabs

 

Fall Children Chords & Tabs

Afi Chords & Tabs

Version: 4 Type: Tab 0 ratings
1 star 2 stars 3 stars 4 stars 5 stars
comments

Fall Children Tab

AFI-FALL CHILDREN
 
 Intro                           1,3________2__________4_____________           
e|-----------------------------------------|----------|-------------|
B|-----------------------------------------|----------|-------------|
G|-----------------------------------------|----------|-------------|
D|-----9--8-------------9-----9----7-10-7--|---4---4--|-----4----4--|
A|--7---7--7--9-10-9--10-10-10-10-9-9--9-9-|--5-5-5-5-|---5---5--5--|
E|-0-00--0--0--------0-----0-----0---------|-0---0----|-0--------7--|
  
 Fast Intro   Verse                        
e|------------|---------------------------|-------------|
B|------------|---------------------------|-------------|
G|-9--7-9-7-9-|-9--7-10-9--7-12-5---4-----|-------------|
D|-9--7-9-7-9-|-9--7-10-9--7-12-5---5--4--|-------------|
A|-7--5-7-5-7-|-7--5--8-7--5-10-3---5--5--|-5---7---9---|
E|-7--5-7-5-7-|-7--5--8-7--5-10-3---3--2--|-7---7---7---|
[ Tab from: http://www.guitartabs.cc/tabs/a/afi/fall_children_tab_ver_4.html ]
 Chorus
e|--------------------------------------|----------------|
B|--------------------------------------|----------------|
G|-9--4--7-----11-12-11-9--4--7--3------|----12--14--16--|
D|-9--5--7--2-----------9--5--7--3--3-5-|-2--------------|
A|-7--5--5--2--9-10--9--7--5--5--1--3-5-|-2--10--12--14--|
E|-0--3--5--0--0--0--0--0--3--5--1--1-3-|-0---0---0---0--|
  
  Breakdown                     Breakdown With Whoahs
e|-----------|-----------------|------------------|-------------|
B|-----------|-----------------|------------------|-------------|
G|-----------|---------9--10---|-9----9---7---8---|---------8---|
D|-2---9---8-|-2--9-8--8---8---|-9---10---7---9---|---------9---|
A|-2-----7---|-2--7-7--7---7---|-7---10---5---9---|-5---7---9---|
E|-0---------|-0-------0---0---|-0----8---5---7---|-7---7---7---|

 Outro With Whoahs
e|-------------------------|
B|-------8-----------------|
G|---4-7-9---4-7-----------|
D|-2-5-7-9-2-5-7-2--9---8--|
A|-2-5-5-7-2-5-5-2----7----|
E|-0-3-5-7-0-3-5-0---------|
Comments