Afi - Fall Children Chords & Tabs

 

Fall Children Chords & Tabs

Afi Chords & Tabs

Version: 3 Type: Tab 0 ratings
1 star 2 stars 3 stars 4 stars 5 stars
comments

Fall Children Tab

AFI - Fall Children

Intro
e|----------------------------------------------------------------------------| 
B|----------------------------------------------------------------------------| 
G|----------------------------------------------------------------------------| 
D|--------------9--------8-------------------------------9-------------9------| 
A|-----7-----------7--------7-----9-----10-----9-----10-----10-----10-----10--| 
E|--0-----0--0--------0--------0-----0------0-----0-------------0-------------| 

e|----------------------------------------------------------------------------| 
B|----------------------------------------------------------------------------| 
G|----------------------------------------------------------------------------| 
D|--------7-----10-----------------------9--------8---------------------------| 
A|-----9-----9------------------7-----------7--------7-----9-----10-----9-----| 
E|--0---------------0--0--0--0-----0--0--------0--------0-----0------0--------| 

e|------------------------------------------------------| 
B|------------------------------------------------------| 
G|------------------------------------------------------| 
D|---------9-------------9------------4-----------4-----| 
A|-----10-----10-----10-----10-----5-----5-----5-----5--| 
E|--0-------------0-------------0-----------0-----------| 
 
e|------------------------------| 
B|------------------------------| 
G|--9--7--9--7--9---------------| 
D|--9--7--9--7--9---------------| 
A|--7--5--7--5--7---------------| 
E|-----------------/-----------| 
[ Tab from: http://www.guitartabs.cc/tabs/a/afi/fall_children_tab_ver_3.html ]
Verse
e|------------------------------------------------------------------------| 
B|--------------------------------7---------------------------------------| 
G|--9--7--10--9-7-12--5--------9--7--10--9-7-10--5-----7--4---------------| 
D|--9--7--10--9-7-12--5--5--4--9--7--10--9-7-10--5--5--7--4---------------| 
A|--7--5--8---7-5-10--3--5--4--7--5--8---7-5-8---3--5--5--2---------------| 
E|-----------------------3--2-----------------------3---------/-----------| 

Chorus
e|--------------------------------------------------------| 
B|--------------------------------------------------------| 
G|--9-----7--9--12--9-----7-----------9-------12--14--16--| 
D|--9--5--7--9--12--9--5--7--8--3--5--9-------x---x---x---| 
A|--7--5--5--7--10--7--5--5--8--3--5--7-------10--12--14--| 
E|-----3---------------3-----6--1--3----------------------| 

Bridge
E|----------------------------------------------------------------------| 
B|----------------------------------------------------------------------| 
G|--9-----------9-----------9-----------9--10---9--9--7-----------------| 
D|--9/-9-----8--9/-9-----8--9/-9-----8--x--x----x--9--7--------9--7-----| 
A|--7-----7-----7-----7-----7-----7-----7--7----7--7--5--5--7--7--5--5--| 
E|-------------------------------------------------------7-----8-----7--| 

e|--------------------------------| 
B|--------------------------------| 
G|--9------7-----9------7---------| 
D|--9--10--7--9--9--10--7--9---9--| 
A|--7--10--5--9--7--10--5--9---9--| 
E|-----8------7-----8------7---7--| 


Outro
e|-----------------------------------| 
B|-----------------------------------| 
G|--9-----7--9--1--------9-----------| 
D|--9--5--7--9--2--5--7--9/-9-----8--| 
A|--7--5--5--7--2--5--5--7-----7-----| 
E|-----3-----------3--5--------------|
Comments