Afi - Fall Children Chords & Tabs

 

Fall Children Chords & Tabs

Afi Chords & Tabs

Version: 2 Type: Tab 1 rating
1 star 2 stars 3 stars 4 stars 5 stars
comments

Fall Children Tab

Pickslide then intro
|------------------------------------------------------------------------------------------------------------|
|------------------------------------------------------------------------------------------------------------|
|------------------------------------------------------------------------------------------------------------|
|--------------9--------8----------------------------- 9-------------9--------------7-----10-----------------|
|---- 7-----------7--------7-----9----10----9-------10----10-----10----10-------9------9------9--------------|
|--0----0--0--------0--------0-----0-----0----0- 0-------------0------------0-------------------0------------|

:

|----------------------------------------------------------|----first fast part before vocals come in--------|
|----------------------------------------------------------|-------------------------------------------------|
|----------------------------------------------------------|----9-------7----9------7---9--------------------|
|--------9------------9-------------4----------------4-----|----9-------7----9------7---9--------------------|
|----10----10-----10-----10------5-----5-------------5-----|----7-------5----7------5---7--------------------|
|--0-----------0---------------0---------------------7-----|----7-------5----7------5---7--------------------|

verse:

|--7---5---8------7---5---10-------3----3----------7----5---8-------7----------3---3---5--------------------|
|--9---7--10------7---7---12-------5----3----------9----7---10------9----------5---3---7--------------------|
|--9---7--10------9---7---12-------5----4----------9----7---10------9---10-----5---4---7--------------------|
|--9---7--10------9---7---12-------5----5---4------9----7---10------9---9------5---5---7--------------------|
|--7---5---8------7---5---10-------3----5---5------7----5---8-------7---8------3---5---5------5---7---9-----|
|--7---5---8------7---5---10-------3----3---2------7----5---8-------7---7------3---3---5------7---7---7-----|

chorus:
[ Tab from: http://www.guitartabs.cc/tabs/a/afi/fall_children_tab_ver_2.html ]
|--7------3-----5-----7-------------7------3------5------6------1---3-------0----------------------------|
|--9------3-----7-----8-------------9------3------7------6------1---3-------0----------------------------|
|--9------4-----7-----9-----12------9------4------7------7------2---4-------0------12-----14----16-------|
|--9------5-----7-----9-----X-------9------5------7------8------3---5-------2------X------X-----X--------|
|--7------5-----5-----7-----10------7------5------5------8------3---5-------2------10-----12----14-------|
|--7------3-----5-----7-----0-------7------3------5------6------1---3-------0------0------0-----0--------|

breakdown:

|------3 times-------|-----------------1st half-----------------------
|--------------------|---------------------------------------------------------------
|--------------------|-----9-----10--------------------------------------------------
|--2----9---------8--|-----8-----8-----------9-----9-----10----7----4----------------
|--2-------7---------|-----7-----7-----7-----7-----7-----7-----5----5-----5-----4----
|--0-----------0-----|-----0-----0-----0-----0-----8-----8----------------7-----7----

second half where Dave is singing alone:

|--7-------8------5------7--------------------------7--------------------------------
|--8-------8------7------7--------------------------7--------------------------------
|--9-------9------7------8--------------------------8-----------fall children!-------
|--9------10------7------9--------------------------9--------------------------------
|--7------10------5------9-------5--------7---------9--------------------------------
|--7------8-------5------7-------7--------7---------7--------------------------------

 the final part with the whoahs:

|--0------3-------5------7------0-------3------5-------------------------------------
|--0------3-------7------8------0-------3------7-------------------------------------
|--0------4-------7------9------0-------4------7-------------------------------------
|--2------5-------7------9------2-------5------7-------2--------------0--------------
|--2------5-------5------7------2-------5------5-------2----------7------8-----------
|--0------3-------5------7------0-------3------5-------0------9----------------------
Comments