Afi - Exsanguination Chords & Tabs

 

Exsanguination Chords & Tabs

Afi Chords & Tabs

Version: 1 Type: Bass Tab 0 ratings
1 star 2 stars 3 stars 4 stars 5 stars
comments

Exsanguination Bass Tab

#----------------------------------PLEASE NOTE---------------------------------#
#This file is the author's own work and represents their interpretation of the-#
#song. You may only use this file for private study, scholarship, or research.-#
#------------------------------------------------------------------------------#

AFI - Exsanguination
Submitted By: Sqweeky
EMail: Blindside831@aol.com


'=play note eight times
,=play note 4 times


Intro:
G---------------------------------------
D---------------------------------------
A------7--7-5--5/10------------7--7/10--
E-0,-0---------------0-0-3-5-0----------

G-----------------------------
D-----------------------------
A--------5-5-5-10-10-10-9-9-9-
E-0,-0-0----------------------

Second part of intro
G-------------------------------------------------------
D----------------------4-5------------------------------
A-----------7--------------3,-4,-5,-6,-7'-7-x-x-7-x-x-7-
E-0-0-3-5-0---11-11/5,----------------------------------
[ Tab from: http://www.guitartabs.cc/tabs/a/afi/exsanguination_btab.html ]
Verse:3times
G--------7---------------------------------- 
D----5-7------4-5-7-----2-4-5---------------
A-7,-------5,--------3,---------------------
E-----------------------------3-x-x-x-3-2-0-

G--------7----------------------------------
D----5-7------4-5-7-----2-4-5---------------
A-7,-------5,--------3,----------5,---------
E-----------------------------3,----/7'-7'--

Chorus:
G-------------------------------------------
D------------------------------5-x-x-x-7-5--
A-7'-3'----5'--7'-3'----5'-/7'--------------
E-------3'-----------3'---------------------

Verse

Chorus 2:
G-------------------------------------------
D-------------------------------------------
A-7'-3'----5'--7'-3'----5'-7--7-------------
E---------3'-----------3'-------------------

Breakdown: 2x
G-----------------------------------------------------------------------
D-----------------------------------------------------------------------
A-7,-10-----9-10-9----10-----9-10-9---7,-10-----9-10-9----10-----9-10-9-
E-------10,--------8,----10,----------------10,--------8,----10,--------

G---------------------------------------
D---------------------------------------
A-7,-10-----9-10-9---10-----------------
E-------10,--------8,---10-10-8-0-3-5/7-

Breakdown 2: slow part
G------------------ 4x
D------------------
A-7,-/10-10-10-----
E--------------10--

Intro II

Chorus II
Comments