Afi - Ever And A Day Chords & Tabs

 

Ever And A Day Chords & Tabs

Afi Chords & Tabs

Version: 4 Type: Tab 0 ratings
1 star 2 stars 3 stars 4 stars 5 stars
comments

Ever And A Day Tab

standerd tuning-EADGBE
Submited by-Jordan  
Ghstmotograter6@Hotmail.com

INTRO

E----------------------------------------------------------------------------
B----------------------------------------------------------------------------
G----------------------------------------------------------------------------
D----------------------------------------------------------------------------
A--6-6-6-5-5-5-6-6-3-3-3-6-6-6-8-8-10-10-10-8-8-8-6-6-8-8-8-6-6-6-5-5--------
E----------------------------------------------------------------------------
                                                      Drums 
E----------------------------------------------------------------------------
B----------------------------------------------------------------------------
G----------------------------------------------------------------------------
D----------------------------------------------------------------------------
A--6-6-6-5-5-5-6-6-3-3-3-6-6-6-8-8-10-10-10-10-10-10-10-10\8-ring------------
E----------------------------------------------------------------------------

Vocals come in 
[ Tab from: http://www.guitartabs.cc/tabs/a/afi/ever_and_a_day_tab_ver_4.html ]
E----------------------------------------------------------------------------
B----------------------------------------------------------------------------
G----------------------------------------------------------------------------
D---------10---------------10---------------10---------------10--------------
A----------------------------------------------------------------------------
E--8-8-8-8--8-8-8---8-8-8-8--8-8-8---8-8-8-8--8-8-8---8-8-8-8--8-8-8---------
pm...........................................................................

E----------------------------------------------------------------------------
B----------------------------------------------------------------------------
G----------------------------------------------------------------------------
D-------------13------------------8----------------10---------------10-------
A----------------------------------------------------------------------------
E--11-11-11-11--11-11-11---6-6-6-6--6-6-6---8-8-8-8--8-8-8---8-8-8-8--8-8-8--
pm...........................................................................

Heavy distortion

E----------------------------------------------------------------------------
B----------------------------------------------------------------------------
G----------------------------------------------------------------------------
D--13-13-13-13-xx--8-8-8-8-xx--10-10-10-10-10-10-10-10-10-10-----------------
A--13-13-13-13-xx--8-8-8-8-xx--10-10-10-10-10-10-10-10-10-10-----------------
E--11-11-11-11-xx--6-6-6-6-xx---8--8--8--8--8--8--8--8--8--8-----------------

Final Blast

E----------------------------------------------------------------------------
B----------------------------------------------------------------------------
G--xx-8-8-8-8----------------------------------------------------------------
D--xx-8-8-8-8--xx-8-8-8-8--xx-10-10-10-10-10-10-10-10-10---------------------
A--xx-6-6-6-6--xx-8-8-8-8--xx-10-10-10-10-10-10-10-10-10---10-10--8-8--------
E--xx----------xx-6-6-6-6--xx--8--8--8--8--8--8--8--8--8---------------------

End on

E-----
B-----
G-----
D--8--
A--8--
E--6--
Comments