Afi - Ever And A Day Chords & Tabs

 

Ever And A Day Chords & Tabs

Afi Chords & Tabs

Version: 1 Type: Tab 0 ratings
1 star 2 stars 3 stars 4 stars 5 stars
comments

Ever And A Day Tab

AFI,ever and a day.
 Tabbed by žaio, maxo_sa@hotmail.com.
  
title: EVER AND A DAY           ~=let it ring         %=release
artist: AFI                     m=right hand muting   <<<= pick slide
[ Tab from: http://www.guitartabs.cc/tabs/a/afi/ever_and_a_day_tab.html ]
  intro
E-------------------------------------------------first-time-------------------------second-time----------------|
B----------------------------------(--------------------------------------)-(--------------------------m-m-m-)--|
G--8-8-8-7-7-7-8-8-5-5-5-8-8-10-10-(-12-12-12-10-10-8-8-10-10-8-8-8-7-7-7-)-(-12-12-12-12-12-13-10~~--101010-)--|
D--x-x-x-x-x-x-x-x-x-x-x-x-x--x--x-(--x--x--x--x--x-x-x--x--x-x-x-x-x-x-x-)-(--x--x--x--x--x--x--x-----x-x-x-)--|
A--6-6-6-5-5-5-6-6-3-3-3-6-6--8--8-(-10-10-10-10--8-6-6--8--8-6-6-6-5-5-5-)-(-10-10-10-10-10-11--8~~---8-8-8-)--|
E----------------------------------(--------------------------------------)-(--------------------------------)--|
 
 verse                            pre-chorus   chorus                                  endchorus
E-------------------------------|-------------|---------------------------------------|----------------|
B--(----m---)------m--------m---|--mmm--------|---------------------------------------|-mmmmmmm--------|
G--(----5---)------8--------3---|--555-555-5~~|-8~-88-8------------------------12-10--|-5555555555555--|
D--(mmmm-mm-)--mmmm-mm--mmmm-mm-|--555-555-5~~|-8~-88-8--888-8/10-1010-1010~~---x--x--|-5555555555555--|
A--(3333-33-)--6666-66--1111-11-|--333-333-3~~|-6~-66-6--888-8/10-1010-1010~~--10--8--|-3333333333333--|
E play-this-x4------------------|-------------|----------666-6/-8--8-8--8-8~~---------|----------------|
     
                                                         bridge
E-repeat---------------------------|------------------|--------------------------------------------------|
B-verse------------------------4-4-|repeat-pre-chorus-|-------------------------------mmmmmmmmmm---------|
G-with-distortion---------------5--|-and-chorus-------|-------------(5~-5-33333333-)--5555555555---5-%---|
D-and-with-this-interlude-mmmm-----|------------------|-------------(5~-5-33333333-)--5555555555---5-%---|
A-------------------------3333-----|------------------|-3~~-<<<<<<--(3~-3-11111111-)--3333333333---3-%---|
E----------------------------------|------------------|--------------play this x3------------------------|

Tabbed by žaio 
 
I am sure that this is the right one. if you don't think so E-mail me       maxo_sa@hotmail.com


 
:: Ultimate Guitar Archive :: 
http://www.ultimate-guitar.com 
Comments