Afi - Drink Drank Punk Chords & Tabs

 

Drink Drank Punk Chords & Tabs

Afi Chords & Tabs

Version: 1 Type: Tab 0 ratings
1 star 2 stars 3 stars 4 stars 5 stars
comments

Drink Drank Punk Tab

   
-----------------------------------------------------------------------------
			     DRINK DRANK PUNK - A.F.I.
-----------------------------------------------------------------------------
Tabbed by: Coco
Email: cocofuhgawz@hotmail.com

Tuning:Normal

Intro
e|-----------------------------------------------------------|
B|-----------------------------------------------------------|
G|----------------6-6----------------6-6----------------6-6--|
D|--6-6-6-6-6-6-6-6-6--6-6-6-6-6-6-6-6-6--6-6-6-6-6-6-6-6-6--|
A|--6-6-6-6-6-6-6-4-4--6-6-6-6-6-6-6-4-4--6-6-6-6-6-6-6-4-4--|
E|--4-4-4-4-4-4-4------4-4-4-4-4-4-4------4-4-4-4-4-4-4------|

-------------------|
-------------------|
----------------6--|
--6-6-6-6-6-6-6-6--|
--6-6-6-6-6-6-6-4--|
--4-4-4-4-4-4-4----|


Riff
e|-------------------|
B|-------------------|
G|----------------6--|
D|--6-6-6-6-6-6-6-6--|
A|--6-6-6-6-6-6-6-4--|
E|--4-4-4-4-4-4-4----|

e|-------------------|
B|-------------------|
G|----------------6--|
D|--6-6-6-6-6-6-6-6--|
A|--6-6-6-6-6-6-6-4--|
E|--4-4-4-4-4-4-4----|

e|-------------------|
B|-------------------|
G|----------------6--|
D|--6-6-6-6-6-6-6-6--|
A|--6-6-6-6-6-6-6-4--|
E|--4-4-4-4-4-4-4----|

e|-------------------|
B|-------------------|
G|----------------6--|
D|--6-6-6-6-6-6-6-6--|
A|--6-6-6-6-6-6-6-4--|
E|--4-4-4-4-4-4-4----|


Verse
e|-----------------------------------------------------------|
B|-----------------------------------------------------------|
G|----------------6-6----------------6-6----------------6-6--|
D|--6-6-6-6-6-6-6-6-6--6-6-6-6-6-6-6-6-6--6-6-6-6-6-6-6-6-6--|
A|--6-6-6-6-6-6-6-4-4--6-6-6-6-6-6-6-4-4--6-6-6-6-6-6-6-4-4--|
E|--4-4-4-4-4-4-4------4-4-4-4-4-4-4------4-4-4-4-4-4-4------|

-------------------|
-------------------|
----------------6--|
--6-6-6-6-6-6-6-6--|
--6-6-6-6-6-6-6-4--|
--4-4-4-4-4-4-4----|


Riff
e|-------------------|
B|-------------------|
G|----------------6--|
D|--6-6-6-6-6-6-6-6--|
A|--6-6-6-6-6-6-6-4--|
E|--4-4-4-4-4-4-4----|

e|-------------------|
B|-------------------|
G|----------------6--|
D|--6-6-6-6-6-6-6-6--|
A|--6-6-6-6-6-6-6-4--|
E|--4-4-4-4-4-4-4----|

e|-------------------|
B|-------------------|
G|----------------6--|
D|--6-6-6-6-6-6-6-6--|
A|--6-6-6-6-6-6-6-4--|
E|--4-4-4-4-4-4-4----|

e|-------------------|
B|-------------------|
G|----------------6--|
D|--6-6-6-6-6-6-6-6--|
A|--6-6-6-6-6-6-6-4--|
E|--4-4-4-4-4-4-4----|


Verse
e|-----------------------------------------------------------|
B|-----------------------------------------------------------|
G|----------------6-6----------------6-6----------------6-6--|
D|--6-6-6-6-6-6-6-6-6--6-6-6-6-6-6-6-6-6--6-6-6-6-6-6-6-6-6--|
A|--6-6-6-6-6-6-6-4-4--6-6-6-6-6-6-6-4-4--6-6-6-6-6-6-6-4-4--|
E|--4-4-4-4-4-4-4------4-4-4-4-4-4-4------4-4-4-4-4-4-4------|

-------------------|
-------------------|
----------------6--|
--6-6-6-6-6-6-6-6--|
--6-6-6-6-6-6-6-4--|
--4-4-4-4-4-4-4----|


Verse 2

guitar 1
e|----------------------------------------|
B|----------------------------------------|
G|--2-2-2-2-2---6-6-6-6-6---8-8-8-8-8-8---|
D|--2-2-2-2-2---6-6-6-6-6---8-8-8-8-8-8---|
A|--0-0-0-0-0-0-4-4-4-4-4-0-6-6-6-6-6-6---|
E|----------------------------------------|

guitar 2
e|----------------------------------------|
B|----------------------------------------|
G|----------------------------------------|
D|--(00000)-----(44444)-----(666666)------|
A|----------------------------------------|
E|----------------------------------------|

guitar 1
e|----------------------------------------|
B|----------------------------------------|
G|--2-2-2-2-2---6-6-6-6-6---8-8-8-8-8-8---|
D|--2-2-2-2-2---6-6-6-6-6---8-8-8-8-8-8---|
A|--0-0-0-0-0-0-4-4-4-4-4-0-6-6-6-6-6-6---|
E|----------------------------------------|

guitar 2
e|----------------------------------------|
B|----------------------------------------|
G|----------------------------------------|
D|--(00000)-----(44444)-----(666666)------|
A|----------------------------------------|
E|----------------------------------------|

guitar 1
e|----------------------------------------|
B|----------------------------------------|
G|--2-2-2-2-2---6-6-6-6-6---8-8-8-8-8-8---|
D|--2-2-2-2-2---6-6-6-6-6---8-8-8-8-8-8---|
A|--0-0-0-0-0-0-4-4-4-4-4-0-6-6-6-6-6-6---|
E|----------------------------------------|

guitar 2
e|----------------------------------------|
B|--9h----------7h----------6h------------|
G|----------------------------------------|
D|----------------------------------------|
A|----------------------------------------|
E|----------------------------------------|
[ Tab from: http://www.guitartabs.cc/tabs/a/afi/drink_drank_punk_tab.html ]
guitar 1
e|----------------------------------------|
B|----------------------------------------|
G|--2-2-2-2-2---6-6-6-6-6---8-8-8-8-8-8---|
D|--2-2-2-2-2---6-6-6-6-6---8-8-8-8-8-8---|
A|--0-0-0-0-0-0-4-4-4-4-4-0-6-6-6-6-6-6---|
E|----------------------------------------|

guitar 2
e|----------------------------------------|
B|--9h----------7h----------6h------------|
G|----------------------------------------|
D|----------------------------------------|
A|----------------------------------------|
E|----------------------------------------|


Riff
e|-------------------|
B|-------------------|
G|----------------6--|
D|--6-6-6-6-6-6-6-6--|
A|--6-6-6-6-6-6-6-4--|
E|--4-4-4-4-4-4-4----|

e|-------------------|
B|-------------------|
G|----------------6--|
D|--6-6-6-6-6-6-6-6--|
A|--6-6-6-6-6-6-6-4--|
E|--4-4-4-4-4-4-4----|

e|-------------------|
B|-------------------|
G|----------------6--|
D|--6-6-6-6-6-6-6-6--|
A|--6-6-6-6-6-6-6-4--|
E|--4-4-4-4-4-4-4----|

e|-------------------|
B|-------------------|
G|----------------6--|
D|--6-6-6-6-6-6-6-6--|
A|--6-6-6-6-6-6-6-4--|
E|--4-4-4-4-4-4-4----|


Verse
e|-----------------------------------------------------------|
B|-----------------------------------------------------------|
G|----------------6-6----------------6-6----------------6-6--|
D|--6-6-6-6-6-6-6-6-6--6-6-6-6-6-6-6-6-6--6-6-6-6-6-6-6-6-6--|
A|--6-6-6-6-6-6-6-4-4--6-6-6-6-6-6-6-4-4--6-6-6-6-6-6-6-4-4--|
E|--4-4-4-4-4-4-4------4-4-4-4-4-4-4------4-4-4-4-4-4-4------|

-------------------|
-------------------|
----------------6--|
--6-6-6-6-6-6-6-6--|
--6-6-6-6-6-6-6-4--|
--4-4-4-4-4-4-4----|


Verse 2

guitar 1
e|----------------------------------------|
B|----------------------------------------|
G|--2-2-2-2-2---6-6-6-6-6---8-8-8-8-8-8---|
D|--2-2-2-2-2---6-6-6-6-6---8-8-8-8-8-8---|
A|--0-0-0-0-0-0-4-4-4-4-4-0-6-6-6-6-6-6---|
E|----------------------------------------|

guitar 2
e|----------------------------------------|
B|----------------------------------------|
G|----------------------------------------|
D|--(00000)-----(44444)-----(666666)------|
A|----------------------------------------|
E|----------------------------------------|

guitar 1
e|----------------------------------------|
B|----------------------------------------|
G|--2-2-2-2-2---6-6-6-6-6---8-8-8-8-8-8---|
D|--2-2-2-2-2---6-6-6-6-6---8-8-8-8-8-8---|
A|--0-0-0-0-0-0-4-4-4-4-4-0-6-6-6-6-6-6---|
E|----------------------------------------|

guitar 2
e|----------------------------------------|
B|----------------------------------------|
G|----------------------------------------|
D|--(00000)-----(44444)-----(666666)------|
A|----------------------------------------|
E|----------------------------------------|

guitar 1
e|----------------------------------------|
B|----------------------------------------|
G|--2-2-2-2-2---6-6-6-6-6---8-8-8-8-8-8---|
D|--2-2-2-2-2---6-6-6-6-6---8-8-8-8-8-8---|
A|--0-0-0-0-0-0-4-4-4-4-4-0-6-6-6-6-6-6---|
E|----------------------------------------|

guitar 2
e|----------------------------------------|
B|--9h----------7h----------6h------------|
G|----------------------------------------|
D|----------------------------------------|
A|----------------------------------------|
E|----------------------------------------|

guitar 1
e|----------------------------------------|
B|----------------------------------------|
G|--2-2-2-2-2---6-6-6-6-6---8-8-8-8-8-8---|
D|--2-2-2-2-2---6-6-6-6-6---8-8-8-8-8-8---|
A|--0-0-0-0-0-0-4-4-4-4-4-0-6-6-6-6-6-6---|
E|----------------------------------------|

guitar 2
e|----------------------------------------|
B|--9h----------7h----------6h------------|
G|----------------------------------------|
D|----------------------------------------|
A|----------------------------------------|
E|----------------------------------------|


Verse
e|-----------------------------------------------------------|
B|-----------------------------------------------------------|
G|----------------6-6----------------6-6----------------6-6--|
D|--6-6-6-6-6-6-6-6-6--6-6-6-6-6-6-6-6-6--6-6-6-6-6-6-6-6-6--|
A|--6-6-6-6-6-6-6-4-4--6-6-6-6-6-6-6-4-4--6-6-6-6-6-6-6-4-4--|
E|--4-4-4-4-4-4-4------4-4-4-4-4-4-4------4-4-4-4-4-4-4------|

-------------------|
-------------------|
----------------6--|
--6-6-6-6-6-6-6-6--|
--6-6-6-6-6-6-6-4--|
--4-4-4-4-4-4-4----|


End
e|---------------------|
B|---------------------|
G|--6/4/3/2/1/0~---5\--|
D|--6/4/3/2/1/0~---3\--|
A|--6/4/3/2/1/0~---3\--|
E|---------------------|


/  slide up
 \  slide down
 h  hammer-on
 p  pull-off
 ~  vibrato
 +  harmonic
 x  Mute note
=============================================================================
comments? send me an e-mail!!!
Comments