Afi - Dream Of Waking Chords & Tabs

 

Dream Of Waking Chords & Tabs

Afi Chords & Tabs

Version: 1 Type: Bass Tab 0 ratings
1 star 2 stars 3 stars 4 stars 5 stars
comments

Dream Of Waking Bass Tab

  dream of waking 
  bassist:hunter
  band:afi

intro
-----------------------------------------|------------------
-----------------------------------------|------------------
---5-777777777--5-10101010101010---------|---11-11-11--13--- 
-----------------------------------------|------------------

pre verse
--------------------------------------------------------
---------55-------------------55-55-77------------------
---77777-----77777-55--77777------------7-7-7--555555--- 1x
--------------------------------------------------------

verse
-----------------------------
-----------------------------
--7p(16x)--777777--55555----- 2x
-----------------------------
[ Tab from: http://www.guitartabs.cc/tabs/a/afi/dream_of_waking_btab.html ]
pre chorus
------------------------------
------------------------------
-5-777777--5-101010101010----- 2x
------------------------------

chorus: play really fast
---------------------------------
------------------------4--------
--77777777-----3-0--5-7---7-5---- 4x
-----------3-5-------------------

break down
------------|----------------
------------|----------------
------------|--2-2--222222---
-0-0-3-6----|----------------

ending
-------------------------------|-----------------------------|
-------------------------------|-----------------------------|
-------55-777------------------|--1010101010-----------(3x)--|
--0-00--------0-00---3-3-3-3---|-------------1010101010------|

|-----------------------|
|-----------------------|
|--10-10-10--11-12-13---|
|-----------------------|   well thats it good luck!
Comments