Afi - Dont Make Me Ill Chords & Tabs

 

Dont Make Me Ill Chords & Tabs

Afi Chords & Tabs

Version: 1 Type: Bass Tab 0 ratings
1 star 2 stars 3 stars 4 stars 5 stars
comments

Dont Make Me Ill Bass Tab

Song-Dont Make Me ill
Band-AFI
CD- Answer That and Stay Fashionable


intro-
----------------------------------------------                        end of  
     -------------------
----------------------------------------------      just repeat      intro    
  -play alot-------
-55-5555---------------------------------      until singing                 
--------------------
-------------22-33-2-33-3333333333                                       
-5555555555--
[ Tab from: http://www.guitartabs.cc/tabs/a/afi/dont_make_me_ill_btab.html ]
verse-
------------------------------------------------------------------------------
--------------------
------------------------------------------------------------------------------
---------------------
-55-5555--------------------------------------55-5555-------------------------
------------
--------------3333-33--55-5555555555--------------5555-55--33-3333333333

chrorus-    (no one.....no one...)
-----------------------------------------------------
-----------------------------------------------------
-55-5555-----------------------------------------
--------------55-5555-77-7777-33-3333---

verse-
chorus-    at end of chorus ---------
  >means 16      -----------------------
  >means 8        --------------------5<
                         -5>-3>-5>-3<----

(no one... no one...)
--------------------------
--------------------------
--------------------------
-5----------------3------

chorus- during solo
outro- chorus played fast

sorry if its confusing but email me and i can explain

tabed by chris at EBHCsk8@aol.com

Comments