Afi - Despair Factor Chords & Tabs

 

Despair Factor Chords & Tabs

Afi Chords & Tabs

Version: 1 Type: Bass Tab 0 ratings
1 star 2 stars 3 stars 4 stars 5 stars
comments

Despair Factor Bass Tab

Standard Tuning 

(Intro) 
G|--------------------------------------------------------------------|
D|---------------------------------------------------------------4-5-7|
A|------------------------------------------------------------5-------|
E|0--3--5--0--3--5--3--3--5--6--3--0--3--5--0--3--5--3--3--5----------| 

(Verse)
G|-----------------------------| 
D|-----------------------------| 
A|--------5>-2>---------5>-2>--| 
E|-0>-3>---------0>-3>---------| 

G|------------------------------------------------------------------| 
D|--------------------4---------4--5--2--------------------4--5-----| 
A|----2-----2--3--5------5--2-------------2-------2--3--5--------2--| 
E|-0-----3------------------------------------3---------------------| 

(Chorus)
G|------------------------------| 
D|----5--2--5----7--5--4--2--0--|  x2
A|-3----------5-----------------| 
E|------------------------------| 
[ Tab from: http://www.guitartabs.cc/tabs/a/afi/despair_factor_btab.html ]
G|--------------------------------------------------------------------|
D|---------------------------------------------------------------4-5-7|
A|------------------------------------------------------------5-------|
E|0--3--5--0--3--5--3--3--5--6--3--0--3--5--0--3--5--3--3--5----------| 
 
G|-------------------------------------------------------------------| 
D|--------------------4---------4--5--2--------------------4--5------| 
A|----2-----2--3--5------5--2-------------2-------2--3--5--------2---| 
E|-0-----3------------------------------------3----------------------| 

G|------------------------------| 
D|----5--2--5----7--5--4--2--0--|  x2
A|-3----------5-----------------| 
E|------------------------------| 

G|---------------------------------------9--11--| 
D|------------5--7--9--7--10--9--10--12---------| 
A|-2/------7------------------------------------| 
E|----------------------------------------------| 

G|--------------------| 
D|---------------2-4--|  x4
A|--------2-3-5-------| 
E|-0-2-3--------------| 

G|---------| 
D|---------|  x2
A|---------| 
E|-0>-3-2--| 

G|-------------------| 
D|-----------2-4-----|  x2
A|--------5-------5--| 
E|-0>-3--------------|

Thanks, please rate it after you learn it.
Comments