Afi - Death Of Seasons Chords & Tabs

 

Death Of Seasons Chords & Tabs

Afi Chords & Tabs

Version: 1 Type: Tab 0 ratings
1 star 2 stars 3 stars 4 stars 5 stars
comments

Death Of Seasons Tab

   
confusing but easy....i tried my best to make it no confusing but....yeah

Intro and Verse:
----------------------------
----------------------------
----------------------------
----------------------------
---4-4-4-4-4--4-4-4-4--4-4-4
---6-6-6-6-7--6-6-6-7--6-6-7

(it isn't the right amount of beats, just listen to it to figure it out)

------------------------------
------------------------------
------------------------------
------------------------------
---2-2-2-2-2--2-2-2-2--2-2-2-2
---4-4-4-4-5--4-4-4-5--4-4-4-5
Chorus:
------------------------------
------------------------------
------------------------------
-4-4--------------------------
-2-2-4-4--6-6-----------------
-----2-2--4-4-----------------
((again not the right amount so listen))

(you do the chorus X3, first time take 1st cords, second time take 2nd cords,
third time take third cords)
1st             2nd                     3rd
-------| ----------------------------|------------------------------
-------| ----------------------------|------------------------------
--9-8--| ----8-8--6-6--4-4--3-3------|--8--6--4--6------------------
--X-X--| ----X-X--X-X--X-X--X-X------|--X--X--X--X------------------
--7-6--| ----6-6--4-4--2-2--1-1------|--6--4--2--4------------------
-------| ----------------------------|------------------------------

[ Tab from: http://www.guitartabs.cc/tabs/a/afi/death_of_seasons_tab.html ]
cords after chorus:
-----------------------
-----------------------
-----------------------
-4---------------------
-2--4--2-4-------------
----2--0-2-------------

(really hard to explain... just listen to the song))

back to first verse


2nd verse: (it won't be alright)
-----------------------------------------------------
-----------------------------------------------------
-----------------------------------------------------
-----------------------------------------------------
--4-6-7-9-----------------1-2-------------------1-2-1
-----------4-X-4-X-4-X-4-X------2-X-2-X-4-X-4-X------


--------------------
--------------------
--6-8-9-11-13-------
--X-X-X-X--X--------
--4-6-7-9--11-------
--------------------
3rd Verse: (and i disintegrate,because this hate is real)
E5 (E5 1st, E5 2nd, E5 3rd)

1st           2nd           3rd
------------|-----------|-----------------------
------------|-----------|-----------------------
--4-6-3-4---|-----------|--8-9-6-8--------------
--x-x-x-x---|--4--------|--x-x-x-x--------------
--2-4-1-2---|--2-4------|--6-7-4-6--------------
------------|----2------|-----------------------


Ending:
-----------------------
-----------------------
-----------------------
--4--------------------
--2-4-2-6--------------
----2-0-4--------------

again just listen to see how many beats this song is really hard to explain
but reallly east to play

for you info it goes in this order
Intro/Verse
Chorus
After chorus
Verse
Chorus
Verse 2
Verse 3
Ending
Comments