Afi - Death Of Seasons Chords & Tabs

 

Death Of Seasons Chords & Tabs

Afi Chords & Tabs

Version: 2 Type: Bass Tab 0 ratings
1 star 2 stars 3 stars 4 stars 5 stars
comments

Death Of Seasons Bass Tab

song- death of seasons
tabs made by xxgetxxxsickxx
aka eric


i figured this out and it sounds identical to teh song so try it


g---7-9---10-9---9-7-5-7---4-5---7-5---5-4---0----|
d-------------------------------------------------|
a-0-----0------0---------0-----0-----0-----0------|
e-------------------------------------------------|
[ Tab from: http://www.guitartabs.cc/tabs/a/afi/death_of_seasons_btab_ver_2.html ]
g---7-9---10-9---9-7-5-7---4-5---7-5---5-4---0----|
d-------------------------------------------------|
a-0-----0------0---------0-----0-----0-----0------|
e-------------------------------------------------|

g---7-9---10-9---9-7-5-7---4-5---7-5---5-4---0----| so on and so fourth
d-------------------------------------------------|
a-0-----0------0---------0-----0-----0-----0------|
e-------------------------------------------------|
Comments