Afi - Death Of Seasons Chords & Tabs

 

Death Of Seasons Chords & Tabs

Afi Chords & Tabs

Version: 1 Type: Bass Tab 0 ratings
1 star 2 stars 3 stars 4 stars 5 stars
comments

Death Of Seasons Bass Tab

   
Band:A.F.I
Song:Death Of Seasons
Album:Sing The Sorrow
Bassist:Hunter
Sumbitted by:Andrew   riseinside02@hotmail.com

Im not entirely sure if this is right...

G-------------------------------------------------------------------------- 
D--12-14---15-14---14-12-10-12-----9-10---12-10--10-9---------------------- 
A-0------0-------0-------------0-0------0-------0-----0-10---0------------- 3x 
E-------------------------------------------------------------------------- 

G-------------------------------------------------------------------------- 
D--12-14---15-14---14-12-10-12-----9-10---12-10-9--10(let ring)------------ 
A-0------0-------0-------------0-0------0-----------0---------------------- 1x 
E-------------------------------------------------------------------------- 

G-------------------------------------------------------------------------- 
D-------------------------------------------------------------------------- 
A---------------------------------------------55555------------------------ 2x 
E-55555-55555-55555--11111--33333-33333-33333----------(5)<--on second time 

G-------------------------------------------------------------------------- 
D-------------------------------------------------------------------------- 
A--------------------10-10-10-10-10-10-10-10-10-10------------------------- 1x 
E-5-5-5--33333-33333------------------------------------------------------- 

G-------------------------------------------------------------------------- 
D-------------------------------------------------------14-12-10--12-10-9-- * 
A-33333-33333-------------12-12-12-12-12-10-10-10-10-10---------12-------10 1x 
E-------------33333-33333-------------------------------------------------- 

G-------------------------------------------------------------------------- 
D-------------------------------------------------------------------------- 
A-33333-33333-------------77777--55555--33333------------------------------ 1x 
E-------------33333-33333---------------------55555------------------------ 

G----------------------------99999-99999-9-7---5-4------------------------- 
D-----------/2-2-----------------------------------5----------------------- * 
A-33333-333-----------33333------------------3----------------------------- 1x 
E----------------33333----------------------------------------------------- 
[ Tab from: http://www.guitartabs.cc/tabs/a/afi/death_of_seasons_btab.html ]
G-------------------------------------------------------------------------- 
D-------------------------------------------------------------------------- 
A-33333-33333-------------------------10-10-10-10-10-10--10(let ring)------ 1x 
E-------------11111-11111--3(let ring)------------------------------------- 

INTENSE TECHNO BEAT 

G-------------------------------------------------------------------------- 
D-------------------------------------------------------------------------- 
A---------------------------------------------55555------------------------ 2x 
E-55555-55555-55555--11111--33333-33333-33333----------(5)----------------- 

G-------------------------------------------------------------------------- 
D-------------------------------------------------------------------------- 
A--------------------10-10-10-10-10-10-10-10-10-10------------------------- 1x 
E-5-5-5--33333-33333------------------------------------------------------- 

G-------------------------------------------------------------------------- 
D-------------------------------------------------------14-12-10--12-10-9-- * 
A-33333-33333-------------12-12-12-12-12-10-10-10-10-10---------12-------10 1x 
E-------------33333-33333-------------------------------------------------- 

G-------------------------------------------------------------------------- 
D-------------------------------------------------------------------------- 
A-33333-33333-------------77777--55555--33333------------------------------ 1x 
E-------------33333-33333---------------------55555------------------------ 

G----------------------------99999-99999-9-7---5-4------------------------- 
D-----------/2-2-----------------------------------5----------------------- * 
A-33333-333-----------33333------------------3----------------------------- 1x 
E----------------33333----------------------------------------------------- 

G-------------------------------------------------------------------------- 
D-------------------------------------------------------------------------- 
A-33333-33333-------------------------------------------------------------- 1x 
E-------------11111-11111--3(let ring)------------------------------------- 

G---|------------------------|-------------------|------------------------- 
D---|------------------------|-------7-7--5-5----|--------------------9--10 
A-0-|-------0000000000000000-|----------------7-7|-------12(let ring)------ end 
E---|--1--1------------------|--1--1-------------|-1--1-------------------- 

The rest of the song has no bass. 



if this yab is wrong and you have the correct one please e-mail me at riseinside02@hotmail.com
Comments