Afi - Dancing Through Sunday Chords & Tabs

 

Dancing Through Sunday Chords & Tabs

Afi Chords & Tabs

Version: 1 Type: Bass Tab 0 ratings
1 star 2 stars 3 stars 4 stars 5 stars
comments

Dancing Through Sunday Bass Tab

   
#----------------------------------PLEASE NOTE---------------------------------#
#This file is the author's own work and represents their interpretation of the-#
#song. You may only use this file for private study, scholarship, or research.-#
#------------------------------------------------------------------------------#

AFI - Dancing Through Sunday
Submitted By: Sqweeky
EMail: Blindside831@aol.com
Album: Sing The Sorrow
Instrument: Bass
Bassist: Hunter
Tabbed by: spidey255

Intro (it's either a hum or bass but play it if u want)
A|-0/19-|

Verse
G|------------------------------------|
D|------------------------------------|when jade palm mutes don't hammer on
A|-5/7b-------5h7---------------------|the 5 to the 7 just hit the 7
E|-----0-3b-0-----0-3-0-2h3-2-2-2-2-2-|

Chorus
G|-------------------------------------------------------|
D|-------------------------------------------------------|
A|-----------------------7-7-7-7-7-7-7-7-7-7-7-7-7-7-7-5-|
E|-3-3-3-3-3-3-2-5-3-2-3---------------------------------|
[ Tab from: http://www.guitartabs.cc/tabs/a/afi/dancing_through_sunday_btab.html ]
G|------------------------------------------------|
D|------------------------------------------------|
A|---------------------------77-10-9-10-7-10-9-10-|
E|-3-3-3-3-3-3-2-3-2-5-3-2-3----------------------|

He actually plays this...i just like the above better
G|----------------------|-------------------------|
D|----------------------|-------------------------|
A|-------------77777777-|------------77-10-9-10-9-|
E|-3333333-5h7----------|-333333-5h7--------------|

Post Chorus
G|-------------------|
D|-------------------|
A|-33333-0-2-3-5>-6>-|
E|-------------------|

verse
chorus
post chorus

Bridge
G|-------------------------|
D|-------------------------|I'm not exactly sure about this
A|-----5/7---------5h7-5h7-|when the guitar comes in 
E|-0-0-----0-0-0-0---------|

G|--------|
D|--------|
A|-2>-10!-|
E|--------|

Play the verse during the solo
chorus

Ending 
G|---------------------------------------------------------|
D|---------------------------------------------------------|
A|-33333-0-2-3-5555-12/0-33333-0-2-3-5555-66666666-7-------|
E|---------------------------------------------------7-5-0-|
Comments