Afi - Crop Tub Chords & Tabs

 

Crop Tub Chords & Tabs

Afi Chords & Tabs

Version: 2 Type: Bass Tab 0 ratings
1 star 2 stars 3 stars 4 stars 5 stars
comments

Crop Tub Bass Tab

Crop Tub
AFI
Very Proud Of Ya
normal tuning

intro

----------------------
----------------------   repeat a few times
---------4-44-------4-
----6-66------6-66----

verse

------------|---------------
------------|---------------
--4---------|--4--------7-6-
-----4-6-4--|-----4-6-4-----

hard to hear solo thingie right before the next verse
[ Tab from: http://www.guitartabs.cc/tabs/a/afi/crop_tub_btab_ver_2.html ]
----------------------------------------     (play really fast, but keep
--9-11-9-11-9-11-9----9-----------------     in mind that the number i 
-------------------11---11-10-9---------     put is only the fret, not
--------------------------------11-10-9\     the number of times you          
                                        play it)

that's pretty much it
tabbed by Andrew
think i'm wrong? filibusterafi@aol.com
Comments