Afi - Consult My Lover Chords & Tabs

 

Consult My Lover Chords & Tabs

Afi Chords & Tabs

Version: 1 Type: Tab 0 ratings
1 star 2 stars 3 stars 4 stars 5 stars
comments

Consult My Lover Tab

   
-------------------------------------------------------------------------------
                           CONSULT MAY LOVER - AFI
-------------------------------------------------------------------------------

Tabbed by: DANC446
Email: DANC446@YAHOO.COM

Tuning: StAnDaRd E tuning

INTRO CHORD  
e|---0----|
B|---0----|
G|---9----|
D|---9----|
A|---7----|
E|---0----|
[ Tab from: http://www.guitartabs.cc/tabs/a/afi/consult_my_lover_tab.html ]
VERSE
e|-----------------------------------------------------------------|
B|-----------------------------------------------------------------|
G|-9-9-9-9---------7-7-7-7---------5-5-5-5---------9-9-9-9---------|
D|-9-9-9-9-5-5-5-5-7-7-7-7-7-7-7-7-5-5-5-5-5-5-5-5-9-9-9-9-7-7-7-7-|
A|-7-7-7-7-5-5-5-5-5-5-5-5-7-7-7-7-3-3-3-3-5-5-5-5-7-7-7-7-7-7-7-7-|
E|---------3-3-3-3---------5-5-5-5---------3-3-3-3---------5-5-5-5-|

CHORUS
e|------------------------------------------|
B|------------------------------------------|
G|-9-9-9-7-9-9-9-12-9-9-9-7---------7-7-7-7-|
D|-9-9-9-7-9-9-9-12-9-9-9-7-5-5-5-5-7-7-7-7-|
A|-7-7-7-5-7-7-7-10-7-7-7-5-5-5-5-5-5-5-5-5-|
E|--------------------------3-3-3-3---------|

VERY SIMPLE; PLAY IT FAST AND PLAY IT LOUD AND YOU GOT IT!

| /  slide up
| \  slide down
| h  hammer-on
| p  pull-off
| ~  vibrato
| +  harmonic
| x  Mute note
| :  LET RING
===============================================================================
Comments