Afi - Charles Atlas Chords & Tabs

 

Charles Atlas Chords & Tabs

Afi Chords & Tabs

Version: 1 Type: Bass Tab 0 ratings
1 star 2 stars 3 stars 4 stars 5 stars
comments

Charles Atlas Bass Tab

Standard Tuning

Intro
G|------------------------|
D|------------------------|
A|------------------------|
E|-8s----0----------------|

Verse Riff 1
G|-----------------------------------------|
D|-----------------------------------------|  x4
A|-----------------------------3-3---------|
E|-5-5-5-5-5-5-5-5-1-1-1-1-0-0-------------|

Verse Riff 2
G|-----------------------------------------------------------------|
D|-----------------------------------------------------------------|
A|-5-5-5-5-5-5-5-5-----------------5-5-5-5-5-5-5-5-------------8-8-|
E|-----------------6-6-6-6-5-5-5-5-----------------6-6-6-6-5-5-----|

   |--------------------Play these two twice---------------------|

G|-----------------------------------------------------------------|
D|-----------------------------------------------------------------|
A|-5-5-5-5-5-5-5-5-------------------------------------------------|
E|-----------------6-6-6-6-5-5-5-5-8-8-8-8-8-8-8-8-6-6-6-6-3-3-3-3-|

G|--------------------------------|
D|--------------------------------|  x2
A|--------------------------------|
E|-8---8-8-----6-6-6-6-3-3-3-3----|

(Chorus)
G|----------------------------------------|
D|----------------------------------------|  x4
A|-----------------3-3-3-3-5-5-5-5--------|
E|-3-3-3-3-0-0-0-0------------------------|

G|----------------------------------------|
D|----------------------------------------|
A|-3-3-3-3-3-3-3-3-5-5-5-5-12////5--------|
E|----------------------------------------|
[ Tab from: http://www.guitartabs.cc/tabs/a/afi/charles_atlas_btab.html ]
G|-----------------------------------------------------------------|
D|-----------------------------------------------------------------|
A|-5-5-5-5-5-5-5-5-----------------5-5-5-5-5-5-5-5-------------8-8-|
E|-----------------6-6-6-6-5-5-5-5-----------------6-6-6-6-5-5-----|

   |--------------------Play these two twice---------------------|

G|-----------------------------------------------------------------|
D|-----------------------------------------------------------------|
A|-5-5-5-5-5-5-5-5-------------------------------------------------|
E|-----------------6-6-6-6-5-5-5-5-8-8-8-8-8-8-8-8-6-6-6-6-3-3-3-3-|

G|--------------------------------|
D|--------------------------------|  x2
A|--------------------------------|
E|-8---8-8-----6-6-6-6-3-3-3-3----|

G|----------------------------------------|
D|----------------------------------------|  x4
A|-----------------3-3-3-3-5-5-5-5--------|
E|-3-3-3-3-0-0-0-0------------------------|

G|----------------------------------------|
D|----------------------------------------|
A|-3-3-3-3-3-3-3-3-5-5-5-5-5-5-5-5--------|
E|----------------------------------------|

(During Solo)
G|-----------------------------------------------------------------|
D|-----------------------------------------------------------------|
A|-----------------------------3-3-----------------------------3-3-|
E|-5-5-5-5-5-5-5-5-3-3-3-3-0-0-----5-5-5-5-5-5-5-5-3-3-3-3-0-0-----|

G|-------------------------|
D|---------5---5-7---------|
A|-----5-7---7-------------|
E|-8/5---------------------|

Ending 1
G|----------------------------------------|
D|----------------------------------------|  x4
A|-----------------5-5-5-5-7-7-7-7--------|
E|-5-5-5-5-2-2-2-2------------------------|

Ending 2
G|----------------------------------------|
D|-7-7-7-4-4-4-4-4------------------------|  x4
A|-----------------5-5-5-7-7-7-7-7--------|
E|----------------------------------------|

Thanks, please rate it after you learn it.
Comments