Afi - Cereal Wars Chords & Tabs

 

Cereal Wars Chords & Tabs

Afi Chords & Tabs

Version: 1 Type: Bass Tab 0 ratings
1 star 2 stars 3 stars 4 stars 5 stars
comments

Cereal Wars Bass Tab

----------------------------------------------------------------------
                         Cereal Wars - AFI
----------------------------------------------------------------------
[ Tab from: http://www.guitartabs.cc/tabs/a/afi/cereal_wars_btab.html ]
Intro: x2 (play high g after second time through)
G|-----------------------------------]
D|----2-3-5-3-2----------------------]
A|-3--------------3---5-3-2-3-2---3--]
E|-------------------3-------------3-]
 
Riff 2
G|------------------------]
D|------2-2---4---------2-]
A|-2-2------2---4----2----]
E|------------------5-----]

Verse
G|----------------------]
D|----------------------]
A|---------5---5--------]
E|--7-5-7---7---7-5-7-8-]

Bridge
G|------]
D|----2-]
A|--2---]
E|------]





Comments