Afi - But Home Is Nowhere Chords & Tabs

 

But Home Is Nowhere Chords & Tabs

Afi Chords & Tabs

Version: 2 Type: Tab 0 ratings
1 star 2 stars 3 stars 4 stars 5 stars
comments

But Home Is Nowhere Tab

Afi - But Home Is Nowhere
By:Andrew Mcshan(Guitarguyx182@aol.com)
[ Tab from: http://www.guitartabs.cc/tabs/a/afi/but_home_is_nowhere_tab_ver_2.html ]
Intro/Verse
e|---------------------------------------------------------------------------|
B|---------------------------------------------------------------------------|
G|-11-14--9-13---------------------------------------------------------------|
D|-11-14--9-13---------------------------------------------------------------|
A|-9--12--7-11---------------------------------------------------------------|
E|---------------------------------------------------------------------------|
Chorus
e|---------------------------------------------------------------------------|
B|---------------------------------------------------------------------------|
G|---------------------------------------------------------------------------|
D|-7-2-4---------------------------------------------------------------------|
A|-7-2-4---------------------------------------------------------------------|
E|-5-0-2---------------------------------------------------------------------|
Bridge "give me something"
e|---------------------------------------------------------------------------|
B|---------------------------------------------------------------------------|
G|-11--13-14-16---------11-13-14-16------------------------------------------|
D|-11--13-14-16------x4-x--x--x--x-------------------------------------------|
A|-9---11-12-14---------9--11-12-14------------------------------------------|
E|---------------------------------------------------------------------------|

e|---------------------------------------------------------------------------|
B|---------------------------------------------------------------------------|
G|---------------------------------------------------------------------------|
D|-4-7-2-4-------------------------------------------------------------------|
A|-4-7-2-4-------------------------------------------------------------------|
E|-2-5-0-2-------------------------------------------------------------------|
Comments