Afi - Bleed Black Chords & Tabs

 

Bleed Black Chords & Tabs

Afi Chords & Tabs

Version: 2 Type: Tab 0 ratings
1 star 2 stars 3 stars 4 stars 5 stars
comments

Bleed Black Tab

   
#----------------------------------PLEASE NOTE---------------------------------#
#This file is the author's own work and represents their interpretation of the-#
#song. You may only use this file for private study, scholarship, or research.-#
#------------------------------------------------------------------------------#

AFI - Bleed Black
Submitted By: Nick
EMail: Shineyguy420@aol.com


Intro:
e---------------------------------| 
b-----4------4------44------4-----|
g---------------------------------|
d--------6------6-------6-------6-|
a---------------------------------|
e---------------------------------|

e---------------------------------|
b----5------5-------55------5-----|
g---------------------------------|
d-------6-------6-------6-------6-|
a---------------------------------|
e---------------------------------|

e---------------------------------|
b---------------------------------|
g---6-------6------66------6------|
d------6--------6------6------6---|
a---------------------------------|
e---------------------------------|
[ Tab from: http://www.guitartabs.cc/tabs/a/afi/bleed_black_tab_ver_2.html ]
Verse:
e------------------------------------------------------|
b---------------------------------------------4--4--4--|
g--88-88---666-66--88-88-444-44-888-666-66------4--4--4|
d--66-66---666-66--66-66-666-66-666-666-66--6----6--6--|
a------------------------------------------------------|
e------------------------------------------------------|

Chorus:
e-----------------------------------------------------------|
b-----------------------------------------------------------|
g-----------------------------------------------------------|
d-222----------1~-222----------1~-222----------1~-----444---|
a-------222-444---------222-444---------222-444---222-222-44|
e----444-------------444-------------444----------000-----22|

e--------------------------------|
b--------------------------------|
g--------------------------------|
d-44--------------44-------------|
a-22-4444-22-6666-22-4444-66-6666|
e----2222-00-4444----2222-44-4444|

Bridge(clean then switch to distortion):
e---------------------------------------------4--------------|
b-----------------------------------------------4------------|
g-------------------------------------------------4----------|
d-------------------22222---------------------------6--------|
a-22222-11111-44444-44444-22222-44444-11111-1---------6------|
e-44444-33333-22222-------00000-22222-11111-1----------------|
Comments