Afi - Advances In Modern Technology Chords & Tabs

 

Advances In Modern Technology Chords & Tabs

Afi Chords & Tabs

Version: 2 Type: Tab 0 ratings
1 star 2 stars 3 stars 4 stars 5 stars
comments

Advances In Modern Technology Tab

Song: Advances in Modern Technology
Artist: AFI
Album: Very Proud of Ya
Tabbed by: Dan(afi_fall_child)

*=Palm mute
/=slide
~=rest

Intro
e----------------------------------------------------------
B----------------------------------------------------------
G---*-*-*-*----------------------*-*-*-*-*-----------------
D-9-9-9-9-9-9/12-12-12-12-11-7-5-5-5-5-5-5-5/7~7-7-7-7/9--
A-7-7-7-7-7-7/10-10-10-10-9--5-3-3-3-3-3-3-3/5~5-5-5-5/7--
E----------------------------------------------------------
[ Tab from: http://www.guitartabs.cc/tabs/a/afi/advances_in_modern_technology_tab_ver_2.html ]
e----------------------------------------------------------
B----------------------------------------------------------
G---*-*-*-*-------------------*-*-*-*-*--------7-8-7-8-7---
D-9-9-9-9-9-9/12-12-12-12-11-7-5-5-5-5-5-5-5/7-7-7-7-7-7---
A-7-7-7-7-7-7/10-10-10-10-9--7-3-3-3-3-3-3-3/5-------------
E----------------------------------------------------------

Verse
e-----------------------------------------------------------
B-----------------------------------------------------------
G-----------------------------------------------------------
D-99999-77777-55555-44444-22222-44444-55-77-----------------
A-77777-55555-33333-22222-00000-22222-33-55-----------------
E-----------------------------------------------------------

Ending
e-----------------------------------------------------------
B-----------------------------------------------------------
G-----------------------------------------------------------
D-999-777-55555-999-----------------------------------------
A-777-555-33333-777-12-12-12-10-10-10-----------------------
E-------------------10-10-10-8--8--8------------------------

Song Order:
Intro (x2)
Verse(x10)
Intro(x2)
Verse(x6)
Ending
Comments