Afi - A Story At Three Chords & Tabs

 

A Story At Three Chords & Tabs

Afi Chords & Tabs

Version: 3 Type: Tab 0 ratings
1 star 2 stars 3 stars 4 stars 5 stars
comments

A Story At Three Tab

   
                 _                                 _                    
                '.\_/. A  F i r e  I n s i d e .\_/.'

AFI
A Story At Three
from the album The Art Of Drowning (2000)
standard tuning

i'm not really all that great at tabbing songs, so this might not be currect,
but i think it sounds good. comment on it.


intro
e|--------------------------------|
b|--------------------------------|
g|-13--15--12--7--11-12-7--9------|
d|-x---x---x---x--x--x--x--x------|
a|-11--13--10--5--9--10-5--7------|
e|-0---0---0---0--0--0--0--0------|

verse
e|-----------------------|
b|-----------------------|
g|----7--5-----7----4----|
d|-2--7--5--5--7----4----|
a|-2--5--3--5--5----2----|
e|-0--5--3--3--5----2----|

pre chorus
e|------------------------|
b|------------------------|
g|-12----------------5-7--|
d|-x-------2-------5-5-7--|
a|-10------2-------5-3-5--|
e|-0-------0-------3-3-5--|

chorus
e|---------------------------|
b|---------------------------|
g|---------------------------|
d|-7-----3-----5-----3---5---|
a|-7-----3-----5-----3---5---|
e|-5-----1-----3-----1---3---|

verse intro
e|---------------------|
b|---------------------|
g|------------12-12-12-|
d|-7-7--------x--x--x--|
a|-7-7--------10-10-10-|
e|-5-5-----------------|
     pm.......
[ Tab from: http://www.guitartabs.cc/tabs/a/afi/a_story_at_three_tab_ver_3.html ]
bridge a (no distortion)
e|-------------------|
b|-------------------|
g|-------------------|
d|-------------------|
a|-3---3-3-8--7--5---|
e|-------------------|

bridge b
e|-------------|-----------------------|
b|-------------|-----------------------|
g|-------5-5---|--------5--5-------5-5-|
d|-5-5---5-5-5-|-7---3--5--5--5----5-5-|
a|-5-5---3-3-5-|-7---3--3--2--5----3-3-|
e|-3-3-------3-|-5---1--------3--------|
  first time

pre chorus 2
e|-------------|
b|-------------|
g|-------------|
d|-55555555555-|
a|-55555555555-|
e|-33333333333-|

outro
e|-------------------|
b|-------------------|
g|-------------------|
d|-7----7----7--7--7-|
a|-7----7----7--7--7-|
e|-5----5----5--5--5-|
    pm.. pm.. pm pm
i tabbed the outro kinda weird with the palm muting, but if you listen to the song,
you'll get it. there's also another guitar playing this riff the last two times you
do the chorus:
e|------------------------|
b|------------------------|
g|------------------------|
d|------------------------|
a|-3----8--7--5-----3--2--|
e|------------------------|


intro        x3
verse        x2
pre chorus   x1
chorus       x2
verse intro  x1
verse        x2
pre chorus   x1
chorus       x4
bridge a     x1
bridge b     x4
pre chorus 2 x1
chorus       x4
outro        x1
Comments