Afi - A Single Second Chords & Tabs

 

A Single Second Chords & Tabs

Afi Chords & Tabs

Version: 5 Type: Bass Tab 0 ratings
1 star 2 stars 3 stars 4 stars 5 stars
comments

A Single Second Bass Tab

OK i have tabbed everything except the bass solo on the intro... dont ask...


G---------------------------------------------------------------------|
D---------------------------------------------------------------------|
A------------------------866666666668---------------------------------|
E--333333333-3(bass solo)---------------------------------------------|

VERSE!!!
G---------------------------------------------------------------------|
D---------------------------------------------------------------------|
A----------------33333333-5-6----------------33333333-6-8-------------|
E--33333333-3-6----------------33333333-3-6---------------------------|
       (play that once and when you play it the second time, play only halfway through 
go to this:
G----------------------|
D----------------------|
A--888888886666666668--|
E----------------------|
[ Tab from: http://www.guitartabs.cc/tabs/a/afi/a_single_second_btab_ver_5.html ]
CHORUS!!!
G-------------------------------------------------------|
D--55555555---------------------------------------------|
A----------66666666--------88888888-twice---------------|
E------------------66666666--------------3-3-3-3-3-3-3--|

BRIDGE/BREAKDOWN/WHATEVER!!!
G---------------------------------------------------|
D---------------------------------------------------|
A--------------------33333333-66666666--------------|
E--33333333-66666666--------------------------------|

G---------------------------------------------------|
D---------------------------------------------------|
A---------------------------------------------------|
E--33333333-66666666-11111111-0000-111--------------|

G---------------------------------------------------|
D---------------------------------------------------|
A---------------------------------------------------|
E--3-3-3-3-3-3-3-3-3--------------------------------|

OUTRO!!!
G---------------------------------------------------|
D---------------------------------------------------|
A---------------------------------------------------|
E--3(a buncha times kinda slow not too slow not too fast)

Thanks, God Bless. MTA
Comments