Afi - A Single Second Chords & Tabs

 

A Single Second Chords & Tabs

Afi Chords & Tabs

Version: 4 Type: Bass Tab 0 ratings
1 star 2 stars 3 stars 4 stars 5 stars
comments

A Single Second Bass Tab

A SINGLE SECOND 
By: Afi
tabbed by thod_leach

(as usual, most everything is strummed in 16th notes)

intro:

|-------------|----------------------------------------|
|-------------|----------------------------------------|
|-------------|-----------3----5--6--8----6-5------6\--|
|--3-3-3-3-3--|--/\3---6-------------------------------|

verse:
(repeat twice)
|------------------------------------------------------------------------|
|------------------------------------------------------------------------|
|---------3----5--6----------3----6--8----------3---5-6-8----6--5-----6--|
|--3---6--------------3---6--------------3---6---------------------------|

chorus:
[ Tab from: http://www.guitartabs.cc/tabs/a/afi/a_single_second_btab_ver_4.html ]
|----(repeat as necessary)----|-------------|
|--5--------------------------|-------------|
|--------6-----------8--------|-------------|
|--------------6--------------|--3-3-3-3-3--|

breakdown:

|--(twice)--------------------------------|---------------|
|-----------------------------------------|---------------|
|----------3-----5/6-6--------------6--8--|--------/10\---|
|--3---6-----------------3---6---1--------|--3-3-3/----\--|

final chorus:

|----(twice)-----------------------------|--------------------|
|----------------------5-----------------|--------------------|
|-------6---------8---------6---------8--|---------/10-10-10--|
|--3---------6-------------------6-------|--3-3-3-3-----------|
Comments