Afi - A Single Second Chords & Tabs

 

A Single Second Chords & Tabs

Afi Chords & Tabs

Version: 3 Type: Bass Tab 0 ratings
1 star 2 stars 3 stars 4 stars 5 stars
comments

A Single Second Bass Tab

AFI - A Single Second

im just putting the fret, and not

  Intro
G|-------------------------------|
D|-------------------------------|
A|-----------3--5-6--7--6-5-6/---|
E|-3--3/--6----------------------|

Verse
G|-------------------------------------------------------|
D|-------------------------------------------------------|
A|-------3---5--6--------3---6--8--------3---5-6-8-6-5---|
E|-3--6------------3--6------------3--6------------------|
[ Tab from: http://www.guitartabs.cc/tabs/a/afi/a_single_second_btab_ver_3.html ]
Chorus
G|-----------|--------------|
D|-5---------|--------------|
A|---6---8---|--------------|
E|-----6-----|-333333333----|

Breakdown
G|--------------------------------|
D|--------------------------------|
A|-------3---5/6------------------|
E|-3--6----------3--6--1--0--1----|

Outro        
G|---------|----------|
D|-5-------|555555555-|
A|---6---8-|----------|
E|-----6---|----------|

Intro     1x
verse     2x
chorus    2x
verse     1x
chorus    2x
breakdown 2x
chorus    4x
Comments