Afi - A Single Second Chords & Tabs

 

A Single Second Chords & Tabs

Afi Chords & Tabs

Version: 1 Type: Bass Tab 0 ratings
1 star 2 stars 3 stars 4 stars 5 stars
comments

A Single Second Bass Tab

------------------------------------------------------------------
			   A SINGLE SECOND - AFI
------------------------------------------------------------------
By: Dave Wilson (nougeypooge@hotmail.com for requests)
Member of the Bass Tab Archive Tabbing Army
 > means strum 4 times  >> means strum 8 times

Intro
G|-----------|---------------------------------------------------|
D|-----------|---------------------------------------------------|
A|-----------|---------3-3--3-3-3-5--6>--8>--8-8-8-6--5>>--5>>---|
E|-3-3-3-3-3-|-3>--3-6-------------------------------------------|

Verse (x2)
G|---------------------------------------------------------------|
D|---------------------------------------------------------------|
A|------3-3-3--3-3-3-5--6>--------3-3-3--3-3-3-6--8>--------3-3-3|
E|3>--6---------------------3>--6---------------------3>--6------|
[ Tab from: http://www.guitartabs.cc/tabs/a/afi/a_single_second_btab.html ]
G|---------------------------------|
D|---------------------------------|
A|-3-3-3-5--6>--8>--8-8-8-6--5>>---|
E|---------------------------------|

Chorus (x2)
G|-------------------------------|-After 2nd time-|
D|--5>>--------------------------|----------------|
A|---------6>>-----------8>>-----|----------------|
E|----------------6>>------------|---3-3-3-3-3----|
Verse
Chorus (x2)

Breakdown (x2)
G|------------------------------------------------|After 2nd Time|
D|------------------------------------------------|--------------|
A|----------3>>-3-3--5/6-6-------------------6/8-8|-------/10-\--|
E|3>>--6>>-----------------3>>--6>>--1>>-1-1------|-3-3-3--------|

Final Chorus (x2)
G|-------------------------------------------|-------------------|
D|----------------------5>>------------------|-------------------|
A|-------6>>-------8>>-------6>>-------8>>---|---------/10-10-10-|
E|--3>>-------6>>-----------------6>>--------|-3-3-3-3-----------|

Comments