Afi - 6 To Chords & Tabs

 

6 To Chords & Tabs

Afi Chords & Tabs

Version: 1 Type: Tab 1 rating
1 star 2 stars 3 stars 4 stars 5 stars
comments

6 To Tab

e|--------------------------------------------------------------------------|
B|--------------------------------------------------------------------------|
G|--------------------------------------------------------------------------|
D|-----0-0----0-0-----0-0-0-0-0-0-------------------------------------------|
A|-----9-9----7-7-----5-5-5-5-5-5---repeat a few times----------------------|
E|--------------------------------------------------------------------------|
[ Tab from: http://www.guitartabs.cc/tabs/a/afi/6_to_tab.html ]
e|--------------------------------------------------------------------------|
B|--------------------------------------------------------------------------|
G|------22--4-22------------22--4-22--------2-2-2-2-------------------------|
D|------------------------------------------0-0-0-0- repeat a few times-----|
A|---0---------------3------------------------------------------------------|
E|--------------------------------------------------------------------------|

e|--------------------------------------------------------------------------|
B|--------------------------------------------------------------------------|
G|--------------------------------------------------------------------------|
D|--------5-5------7-7------------------------------------------------------|
A|---7-7--3-3-5-5--5-5-------about 4 times----------------------------------|
E|---5-5------3-3-----------------------------------------------------------|

e|--------------------------------------------------------------------------|
B|--------------------------------------------------------------------------|
G|--------------------------------------------------------------------------|
D|--5-5-5-5-----------------------------------------------------------------|
A|--3-3-3-3---5-5-----2
Comments