Afi - 6 To 8 Chords & Tabs

 

6 To 8 Chords & Tabs

Afi Chords & Tabs

Version: 5 Type: Tab 0 ratings
1 star 2 stars 3 stars 4 stars 5 stars
comments

6 To 8 Tab

band: afi
song: 6 to 8
album: the art of drowning

intro
e----------------------------------------|
b----------------------------------------|
g----------------------------------------|
d---9--9-9----5--5-5------7-7--7-7-7-7-7-|
a---0--0-0----0--0-0------0-0--0-0-0-0-0-|  x6
e----------------------------------------|

verse
e-------------------------------------------------------|
b-------------------------------------------------------|
g-----2-2-2h4p2-----2-2-2h4p2-----2-2-2-2-2-2-2-2-------|
d---------------------------------0-0-0-0-0-0-0-0-------|  x2
a--0-------------3--------------------------------------|
e-------------------------------------------------------|

intro  x2

chrous
e----------------------------------------------------------------------------|
b----------------------------------------------------------------------------|
g--------------------5-5-5-5-5-5-5-5-------------------7-7-7-7-7-7-7-7-------|
d--7-7-7-7-7-7-7-7---5-5-5-5-5-5-5-5--5-5-5-5-5-5-5-5--7-7-7-7-7-7-7-7-------|x4
a--7-7-7-7-7-7-7-7---3-3-3-3-3-3-3-3--5-5-5-5-5-5-5-5--5-5-5-5-5-5-5-5-------|
e--5-5-5-5-5-5-5-5--------------------3-3-3-3-3-3-3-3------------------------|

distortion kicks in at the end of the 4th time

chrous pt 2
e--------------p--------------------------------|
b--------------a--------------------------------|
g--5-5-5-5-5---u--------------------------------|
d--5-5-5-5-5---s-----5-5----2-2-2-2-2-2-2-2-2-2-|  x4
a--3-3-3-3-3---e-----5-5----2-2-2-2-2-2-2-2-2-2-|
e--------------------3-3----0-0-0-0-0-0-0-0-0-0-|

chrous x4
chrous pt 2  x4
verse (dis) x4
chrous pt 2   x4
[ Tab from: http://www.guitartabs.cc/tabs/a/afi/6_to_8_tab_ver_5.html ]
solo
e--------------------------------------------------------------------------------|
B------------------------------------------13p12-------------------------12------|
G--------------16-14-12--12h14-16-12-12-12-------12-12------------12-------------|
D--22222222222-----------------------------------------12-12h14-14--14-14--14-14-|
A--22222222222-------------------------------------------------------------------|
D--22222222222-------------------------------------------------------------------|
   | palm muted |


e-----------------------------------------------------------------------12-12-|
B-12-----12-----12-------------12~~~12-12-12-12-12-12-------12-12-12-12-12-12-|
G----------------------12-12h14~~12~12-12-12-12-12-12-12h14-12-12-12-12-12----|
D---14-14--14-14-----14-------------------------------------------------------|
A-----------------------------------------------------------------------------|
D-----------------------------------------------------------------------------|


e--12-12-12~~---12-----------0----------------12-12-14-14-14----------------------|
B--12-12-12~~---12------------12-12-12-12-12--12-12-12-12-12-------------------12-|
G-----------------------12h14-12-12-12-12-12----------------------------12--------|
D------------------12h14-------------------------------------12-12h14-14--14-14---|
A---------------------------------------------------------------------------------|
D---------------------------------------------------------------------------------|

e-------------------------------------12~-----------------------------------------|
B------12-----12-----12----------12~--12~-----------------------------------------|
G--------------------------12h14-12~----------12~---------------------------------|
D-14-14--14-14--14-14--1414-------------------14~---------------------------------|
A---------------------------------------------------------------------------------|
D---------------------------------------------------------------------------------|

thats it

tabbed by:aaron marquet   email:azzman_123@hotmail.com


please rate


                         peace
Comments