Afi - 6 To 8 Chords & Tabs

 

6 To 8 Chords & Tabs

Afi Chords & Tabs

Version: 3 Type: Tab 0 ratings
1 star 2 stars 3 stars 4 stars 5 stars
comments

6 To 8 Tab

6 to 8

This might not be right but it sounds good enough

Intro
E-----------------------------------------------||
B-----------------------------------------------||
G-----------------------------------------------||
D--9---9--9--5---5--5--7---7--7-7----7---7---7--||
A--0---0--0--0---0--0--0---0--0----0---0---0----||
E-----------------------------------------------||
[ Tab from: http://www.guitartabs.cc/tabs/a/afi/6_to_8_tab_ver_3.html ]
Distorted Verse
E-------------------------------------------------------------------||
B-------------------------------------------------------------------||
G----------------------------------2-2-2-2-2-2-2-2-2-2-2-2-2-2-2-2--||
D--2-2-2-2-2-2-2-2-5-5-5-5-5-5-5-5-0-0-0-0-0-0-0-0-0-0-0-0-0-0-0-0--||
A--0-0-0-0-0-0-0-0-3-3-3-3-3-3-3-3----------------------------------||
E-------------------------------------------------------------------||

Chorus
E------------------------------------------------------------------||
B------------------------------------------------------------------||
G------------------------------------------------------------------||
D--5-5-5-5-5----------------------9-9-9-9-8-9-8-9-9-9-9-9-9-9-9-9--||
A--3-3-3-3-3---5--5-5-5-5-5-5-5-5-7-7-7-7-6-7-6-7-7-7-7-7-7-7-7-7--||
E--------------3--3-3-3-3-3-3-3-3----------------------------------||
Comments