Aesop Rock - Daylight Chords & Tabs

 

Daylight Chords & Tabs

Aesop Rock Chords & Tabs

Version: 1 Type: Bass Tab

Daylight Bass Tab

for all yall folks who listen to underground hip hop, heres a tab for the song daylight
aesop rock, i beleive there is only one bassline throughout the whole song, however
are two ways to play it, so therefore i will show you both.
[ Tab from: http://www.guitartabs.cc/tabs/a/aesop_rock/daylight_btab.html ]
G-----------------------------------------------------|
D---6-4-----------------------------------------------|
A---------9-7--6-7-14--16-14-13--7-2------------------|
E-------7----------------------------0----------------|

G-----------------------------------------------------|
D---6-4------------9--11-9-8--------------------------|
A---------9-7--6-7------------7-2---------------------|
E-------7-------------------------0-------------------|