Aerosmith - Walk This Way Chords & Tabs

 

Walk This Way Chords & Tabs

Aerosmith Chords & Tabs

Version: 8 Type: Tab 0 ratings
1 star 2 stars 3 stars 4 stars 5 stars
comments

Walk This Way Tab

----------------------------------------------------------------------
			     Walk This Way - Aerosmith
----------------------------------------------------------------------
[ Tab from: http://www.guitartabs.cc/tabs/a/aerosmith/walk_this_way_tab_ver_8.html ]
Intro                                      (2nd time only
e|--------------------------------------------------------------------
B|--------------------------------------------------------------------
G|--------------------------------------------------------------------
D|-------2------2--------2-------2----2------7s10---------------------
A|-0-1-2--0-1-2----0-1-2---0-1-2-------------7s10---------------------
E|---------------0----------------3^0--------5s8----------------------
Verse  
e|--------------------------------------------------------------------
B|--------------------------------------------------------------------
G|-------2-5^0---3-2^0------------------------------------------------
D|-5-5-5-------5-------5----------------------------------------------
A|--------------------------------------------------------------------
E|--------------------------------------------------------------------
Chorus 
e|-----------5-5-5-5--------5-5-5-5-----------------------------------
B|-----------4-4-4-4--------4-4-4-4-----------------------------------
G|-----------5-5-5-5--------5-5-5-5-----------------------------------
D|--------------------5-5-5-------------------------------------------
A|--5-5-5-------------------------------------------------------------
E|--------------------------------------------------------------------
Solo 1
e|-----10b--8h11p8----8----8------------------------------------------
B|-----------------11--11b---11-8------------------------9b-----------
G|--------------------------------11s10-8-10-8-10-10b-8---------------
D|-----------------------------------------------------10-------------
A|--------------------------------------------------------------------
E|--------------------------------------------------------------------

e|-8------------------------------------------------------------------
B|--11-8--------------------------11b---------------------------------
G|-------11s10-8-10-8-10b-8-10-8--------------------------------------
D|--------------------------------------------------------------------
A|--------------------------------------------------------------------
E|--------------------------------------------------------------------
Intro 2X
Verse 8X
Intro 2x
Verse 8x
Chorus 2x
Solo 1
Intro 2x
Verse 8x
Intro 2x
Verse 8x
Chorus 2x
Solo 2 (Don't have)
Verse with end solo till fade out
Sorry I don't have the 2nd solo or the end solo but most of the song is there
Comments