Aerosmith - Walk This Way Chords & Tabs

 

Walk This Way Chords & Tabs

Aerosmith Chords & Tabs

Version: 7 Type: Tab 0 ratings
1 star 2 stars 3 stars 4 stars 5 stars
comments

Walk This Way Tab

Intro:
E----------------------------------------------------------
B----------------------------------------------------------
G-------------------------------------------(x2-but instead)
D-------2-------2---------2-------2-----2----of playing the
A-0-1-2---0-1-2-----0-1-2---0-1-2------------3p0 & 2 the 2nd
E-----------------0-----------------3p0------time, play A 
                                            major, and slide
                                             it up.)
I also play the intro like this. (And considering the fingering for the verses, some 
people find it easier. Same notes, just a different position.)Just play whichever you 
like better.
[ Tab from: http://www.guitartabs.cc/tabs/a/aerosmith/walk_this_way_tab_ver_7.html ]
E----------------------------------------------------------
B----------------------------------------------------------
G----------------------------------------------------------
D----------------------------------------------------------
A-------7-------7----------7-------7-----7----(x2 also.
E-5-6-7---5-6-7---0--5-6-7---5-6-7---3p0-0----Slide the A
                                            major the 2nd
                                           time, instead of
                                         the 3p0 & 07.)

And here's what I slide into from the intro to play during the verses. I've made no 
effort to communicate rhythm here either, so you'll have to know it, or listen to the 
cd to get the feel. These ARE the right notes though. I stood not 15 ft. from them at 
the Gorge in WA., and this was the position he played it in.

       VERSE RIFF.(Slide into from A, second time thru)
E----------------------------------------------------------
B----------------------------------------------------------
G----------------------------------------------------------
D------------7-10-x----8-7---------------------------------
A---------10--------10--------(That's it. Keep repeating)-- 
E-8-8-8-8--------------------------------------------------

By the way...the 'x' means just to mute pick that string, of course, and the 'p' is for 
'pull-off', as seen in the intro. I think that about covers all the signs I used the need
any explaining. Sorry again though, if you haven't heard the song. If you don't know the
groove, then this stuff is near useless. 
Comments