Aerosmith - Walk This Way Chords & Tabs

 

Walk This Way Chords & Tabs

Aerosmith Chords & Tabs

Version: 3 Type: Tab 3 ratings
1 star 2 stars 3 stars 4 stars 5 stars
comments

Walk This Way Tab

   

                         AEROSMITH
                       "WALK THIS WAY"
                     TABBED BY CESAR DAVILA
INTRO
E------------------------------------------------------------------
B------------------------------------------------------------------
G------------------------------------------------------------------
D---------2------------2---------------2-----------2----2----------
A-0--1--2-----0--1--2----------0--1--2----0--1--2------------------
E--------------------------0--------------------------3------------



E-------------------------------------------------------0---0--------
B-------------------------------------------------------2---1--------
G-------------------------------------------------------2---2--------
D---------2------------2---------------2-----------2----2---0-------
A-0--1--2-----0--1--2----------0--1--2----0--1--2-------0---3--------
E--------------------------0----------------------------0---0-------



VERSE
E--------------------------------------
B--------------------------------------
G--------------------------------------
D--------7--10----8---7----------------      REPEAT DURING VERSE
A----10--------10----------------------
E--8-----------------------------------


 E---8--8--8--8-8-8--|--8--8--8---8--8--8--
 B---8--8--8--8-8-8--|-10-10-10--10-10-10--
 G---9--9--9--9-9-9--|-10-10-10--10-10-10--
 D--10-10-10---------|-10-10-10------------
 A--10-10-10---------|--8--8--8------------
 E---8--8--8---------|---------------------

THESE SOLOS ARE FROM MY GOOD FRIEND BRIAN S.

Walk This Way Solos :

by Brian S.

1st solo :
e---11b(12)---------8h11p8-----8-----------------8----------------|
b---------------------------11---11b(13)vvvvvr13---11--8----------|
g---------------------------------------------------------11p10p8-|
d-----------------------------------------------------------------|
a-----------------------------------------------------------------|
e-----------------------------------------------------------------|
[ Tab from: http://www.guitartabs.cc/tabs/a/aerosmith/walk_this_way_tab_ver_3.html ]
e---------------------------------------------------------------|
b---------------------------------10b(11)vvvr11--8----8---------|
g--10----10-10b(12)-/-8vvvv------------------------10---11p10p8-|
d-----10----------------------10--------------------------------|
a---------------------------------------------------------------|
e---------------------------------------------------------------|
	
		         A-like          this..		 
e------------------------------------------------------------|
b-----------------------11b(13)vvvvvvvvr11-------------------|
g--10p8--11p10p8--10p8---------------------------------------|
d-------------------------------------------7----------------|
a------------------------------------------------------------|
e------------------------------------------------------------|

2nd guitar solo :
e-------------5-------------------------------------------3p0-|
b-------------------------------------------------------------|
g--5--5--9p8-----8p7p5--7p5--7p5---7--7b(8)--r7p5--0h3h5------|
d-------------------------------------------------------------|
a-------------------------------------------------------------|
e-------------------------------------------------------------|

e-----0------------------------------------------------------|
b--------0--2--2b3vvvvr2-------------------------------------|
g--5----------------------------------5--8p5-----8p5-----5---|
d--------------------------------7/8----------8-------8------|
a--------------------------3--3------------------------------|
e------------------------------------------------------------|

e-----------------------------------------------------8------|
b-----8p5-----5----------------------------------------------|
g--8-------8------8-p7p5--7p5--7b8vvvr7--5--7b8vv--5---------|
d--------------------------------------------------------0---|
a------------------------------------------------------------|
e------------------------------------------------------------|

Outro Solo : (w/ slap back echo)
   rif A : (*)                          *     full   1 1/2
e-\-------------------------\------------------^-------^--------|
b-\-------------------------\----------------^^------^^---------|
g-\-------------------------\o-2bvvvvvv----4bvvvvvvb^----------o|
d-\---------2----------2----\o---------------------------------o|
a-\-0--1--2----0--1--2------\-----------------------------------|
e-\-----------------------0-\-----------------------------------|

 *                 *        full     1 1/2
e----------------------------^---------^-----|
b--------------------------^^--------^^------|
go--14bvvvvvvvv----------16vvvvvvvvb(1&1/2)-o|
do------------------------------------------o|
a--------------------------------------------|
e--------------------------------------------|


e-12-----------------------------|
b----15p12---15b--r15p12......---|
g--------------------------------|
d--------------------------------| sorry, too lazy to do the rest.
a--------------------------------|
e--------------------------------|


INTR0, VERSE AND CHORUS BY CESAR DAVILA
SOLO BY BRIAN S.
Comments