Aerosmith - Walk This Way Chords & Tabs

 

Walk This Way Chords & Tabs

Aerosmith Chords & Tabs

Version: 12 Type: Tab 0 ratings
1 star 2 stars 3 stars 4 stars 5 stars
comments

Walk This Way Tab

Key:

h - hammer on
p - pull off
b - microtone bend or 1/4 tone bend.
fb - bend string up
hb - half string bend up
fhb - 3 semi tone bend (3 frets up)
r - release bend
/ - slide up
\ - slide down
v - vibrato (sometimes written as ~)
x - play 'note' with heavy damping
^ - downstroke
+ - Upstroke

This song is one of my favorite Aerosmith songs.  The song is pretty much 100% correct.  
problems email me boss_man118@hotmail.com

I also put for the intro and verse the picking sequence.  You don't have to use these, 
personally I find it way easier to play faster. So here is is.. Enjoy.


INTRO:
E-----------------------------------|------------------------------------------------|
B-----------------------------------|------------------------------------------------|
D-----------------------------------|------------------------------------------------|
G------------2------------2-------|------------2-------------2------------2----------|
A---0-1-2----0-1-2--------------|-0-1-2-------0-1-2----------------------------------|
E----------------------------0--x--|------------------------------3p0----------------|
      ^  +  ^  +  + ^   +    ^   ^           ^  +  ^   +   + ^  +    ^    ^            ^

                                                                       (Fill 1)
E-----------------------------------|-------------------------------------------|
B-----------------------------------|-------------------------------------------|
D-----------------------------------|---------------------------------2-/-------|
G------------2------------2-------|------------2-------------2-----2-/----------|
A---0-1-2----0-1-2--------------|-0-1-2-------0-1-2----------0-/----------------|
E----------------------------0--x--|--------------------------------------------|
       ^  +  ^  +  + ^   +    ^   ^           ^  +  ^   +   + ^  +    ^


VERSE 1:
  pm-----------------------------------------------------------|
E--------------------------------------------------------------|
B--------------------------------------------------------------|
D---------------0-0-2-0-----------5-0-0-3-0-2-0----------------|
G--------------------------------------------------------------|
A------3-3-3----------------3----------------------------------|
E--------------------------------------------------------------|
         ^ + ^     + + ^ +        ^        + ^ + ^ + ^ +

Back stroke lover always hidin' neath the covers gonna
talk to you my dady say..........................said you
ain't seen nothin' till you're down on a muffin and you're
sure to be a-changin' your ways...................i met a
cheer.......lead......er was a real young bleeder all the
times i could rem....i......nisce............'cause the
best things in lovin' with a sister and a cousin only
started witha  little kiss............a like this!!!

E-----------------------------------|------------------------------------------------|
B-----------------------------------|------------------------------------------------|
D-----------------------------------|------------------------------------------------|
G------------2------------2-------|------------2-------------2------------2----------|
A---0-1-2----0-1-2--------------|-0-1-2-------0-1-2----------------------------------|
E----------------------------0--x--|------------------------------3p0----------------|
      ^  +  ^  +  + ^   +    ^   ^           ^  +  ^   +   + ^  +    ^    ^            ^

                                                                       (Fill 1)
E-----------------------------------|-------------------------------------------|
B-----------------------------------|-------------------------------------------|
D-----------------------------------|---------------------------------2-/-------|
G------------2------------2-------|------------2-------------2-----2-/----------|
A---0-1-2----0-1-2--------------|-0-1-2-------0-1-2----------0-/----------------|
E----------------------------0--x--|--------------------------------------------|
       ^  +  ^  +  + ^   +    ^   ^           ^  +  ^   +   + ^  +    ^

VERSE 2:
  pm-----------------------------------------------------------|
E--------------------------------------------------------------|
B--------------------------------------------------------------|
D---------------0-0-2-0-----------5-0-0-3-0-2-0----------------|
G--------------------------------------------------------------|
A------3-3-3----------------3----------------------------------|
E--------------------------------------------------------------|
         ^ + ^     + + ^ +        ^        + ^ + ^ + ^ +


E-------------------------------------|------------------------------11-11-11 ------|
B-----------------------10-10-10~|------------------------------10-10-10------------|
D-----------------------8--8--8-~--|------------------------------------------------|
G-------------------------------------|--------10-12-13-----------------------------|
A----10-12-13---------------------|---------8--8--8---------------------------------|
E-----8--8--8-----------------------|-----------------------------------------------|
       Walk this Way !                                Walk This Way!

Do that another time and that's it for the chorus but end with "Uh just give me a kiss!".
[ Tab from: http://www.guitartabs.cc/tabs/a/aerosmith/walk_this_way_tab_ver_12.html ]
1st Solo:
                          hold--
E-11hb--------8h11p8----8---------------8-------------------------------------------|
B----------------------------11---11fb--r11--11-8-----------------------------------|
D-------------------------------------------------------11p10p8-10----10-10fb---8~--|
G------------------------------------------------------------------------10---------|
A-----------------------------------------------------------------------------------|
E-----------------------------------------------------------------------------------|
  .  hold--                                             hold--
E-------------------------------------------------------------------------------|
B--10hb--r10-8----8--------------------------------------------------11fb--r11--|
D------------------10---11p10p8-10p8-10p8-11p10p8-10p8----------------7---------|
G10-----------------------------------------------------------------------------|
A-------------------------------------------------------------------------------|
E-------------------------------------------------------------------------------|


E-----------------------------------|------------------------------------------------|
B-----------------------------------|------------------------------------------------|
D-----------------------------------|------------------------------------------------|
G------------2------------2-------|------------2-------------2------------2----------|
A---0-1-2----0-1-2--------------|-0-1-2-------0-1-2----------------------------------|
E----------------------------0--x--|------------------------------3p0----------------|
      ^  +  ^  +  + ^   +    ^   ^           ^  +  ^   +   + ^  +    ^    ^            ^

                                                                       (Fill 1)
E-----------------------------------|-------------------------------------------|
B-----------------------------------|-------------------------------------------|
D-----------------------------------|---------------------------------2-/-------|
G------------2------------2-------|------------2-------------2-----2-/----------|
A---0-1-2----0-1-2--------------|-0-1-2-------0-1-2----------0-/----------------|
E----------------------------0--x--|--------------------------------------------|
       ^  +  ^  +  + ^   +    ^   ^           ^  +  ^   +   + ^  +    ^

VERSE 3:
  pm-----------------------------------------------------------|
E--------------------------------------------------------------|
B--------------------------------------------------------------|
D---------------0-0-2-0-----------5-0-0-3-0-2-0----------------|
G--------------------------------------------------------------|
A------3-3-3----------------3----------------------------------|
E--------------------------------------------------------------|
         ^ + ^     + + ^ +        ^        + ^ + ^ + ^ +

E-----------------------------------|------------------------------------------------|
B-----------------------------------|------------------------------------------------|
D-----------------------------------|------------------------------------------------|
G------------2------------2-------|------------2-------------2------------2----------|
A---0-1-2----0-1-2--------------|-0-1-2-------0-1-2----------------------------------|
E----------------------------0--x--|------------------------------3p0----------------|
      ^  +  ^  +  + ^   +    ^   ^           ^  +  ^   +   + ^  +    ^    ^            ^

                                                                       (Fill 1)
E-----------------------------------|-------------------------------------------|
B-----------------------------------|-------------------------------------------|
D-----------------------------------|---------------------------------2-/-------|
G------------2------------2-------|------------2-------------2-----2-/----------|
A---0-1-2----0-1-2--------------|-0-1-2-------0-1-2----------0-/----------------|
E----------------------------0--x--|--------------------------------------------|
       ^  +  ^  +  + ^   +    ^   ^           ^  +  ^   +   + ^  +    ^

VERSE 4:
  pm-----------------------------------------------------------|
E--------------------------------------------------------------|
B--------------------------------------------------------------|
D---------------0-0-2-0-----------5-0-0-3-0-2-0----------------|
G--------------------------------------------------------------|
A------3-3-3----------------3----------------------------------|
E--------------------------------------------------------------|
         ^ + ^     + + ^ +        ^        + ^ + ^ + ^ +

E-------------------------------------|------------------------------11-11-11 ------|
B-----------------------10-10-10~|------------------------------10-10-10------------|
D-----------------------8--8--8-~--|------------------------------------------------|
G-------------------------------------|--------10-12-13-----------------------------|
A----10-12-13---------------------|---------8--8--8---------------------------------|
E-----8--8--8-----------------------|-----------------------------------------------|
       Walk this Way !                                Walk This Way!


Alright this is all I got for now, ill be doing the big solo at the end in a bit.
Comments