Aerosmith - Walk This Way Chords & Tabs

 

Aerosmith Chords & Tabs

Version: 1 Type: Tab 13 ratings
1 star 2 stars 3 stars 4 stars 5 stars
comments

Walk This Way Tab

                          Aerosmith - Walk This Way
                                  by digiti                                   


                                                              
E||------------------|------------------|---------------------------|
B||------------------|------------------|---------------------------|
G||------------------|------------------|---------------------------|
D||------------------|------------------|--------2--------2---------|
A||------------------|------------------|--0-1-2----0-1-2-----------|
E||------------------|------------------|--------------------0------|


                                                          
-----------------------------|---------------------------|
-----------------------------|---------------------------|
-----------------------------|---------------------------|
--------2--------2------2----|--------2--------2---------|
--0-1-2----0-1-2-------------|--0-1-2----0-1-2-----------|
--------------------3h0------|--------------------0------|


                                                                     
---------------------------|----------------------------------------|
---------------------------|----------------------------------------|
--------------------2------|----------------------------------------|
--------2--------2--2------|----------------------10----------------|
--0-1-2----0-1-2----0------|--------10-----12--------10-x-13---12-x-|
---------------------------|--8-8-8----8-8----x-x------------x------|


                                         
----------------------------------------|
----------------------------------------|
----------------------------------------|
----------------------10----------------|
--------10-----12--------10-x-13---12-x-|
--8-8-8----8-8----x-x------------x------|


                                         
----------------------------------------|
----------------------------------------|
----------------------------------------|
----------------------10----------------|
--------10-----12--------10-x-13---12-x-|
--8-8-8----8-8----x-x------------x------|


                                         
----------------------------------------|
----------------------------------------|
----------------------------------------|
----------------------10----------------|
--------10-----12--------10-x-13---12-x-|
--8-8-8----8-8----x-x------------x------|


                                         
----------------------------------------|
----------------------------------------|
----------------------------------------|
----------------------10----------------|
--------10-----12--------10-x-13---12-x-|
--8-8-8----8-8----x-x------------x------|


                                         
----------------------------------------|
----------------------------------------|
----------------------------------------|
----------------------10----------------|
--------10-----12--------10-x-13---12-x-|
--8-8-8----8-8----x-x------------x------|


                                                                             
----------------------------------------|-----------------------------------|
----------------------------------------|-----------------------------------|
----------------------------------------|-----------------------------------|
----------------------10----------------|----------------------10------7/---|
--------10-----12--------10-x-13---12-x-|--------10-----12--------10---7/---|
--8-8-8----8-8----x-x------------x------|--8-8-8----8-8----x-x-------x------|


                                                              
------------------------------|------------------------------|
------------------------------|------------------------------|
------------------------------|------------------------------|
--------2--------2-----x-x-x--|--------2--------2---------2--|
--0-1-2----0-1-2-------x-x-x--|--0-1-2----0-1-2--------------|
--------------------0---------|--------------------0--3h0----|


                                                           
------------------------------|---------------------------|
------------------------------|---------------------------|
------------------------------|--------------------2------|
--------2--------2-----x-x-x--|--------2--------2--2------|
--0-1-2----0-1-2-------x-x-x--|--0-1-2----0-1-2----0------|
--------------------0---------|---------------------------|


                                         
----------------------------------------|
----------------------------------------|
----------------------------------------|
----------------------10----------------|
--------10-----12--------10-x-13---12-x-|
--8-8-8----8-8----x-x------------x------|


                                         
----------------------------------------|
----------------------------------------|
----------------------------------------|
----------------------10----------------|
--------10-----12--------10-x-13---12-x-|
--8-8-8----8-8----x-x------------x------|


                                         
----------------------------------------|
----------------------------------------|
----------------------------------------|
----------------------10----------------|
--------10-----12--------10-x-13---12-x-|
--8-8-8----8-8----x-x------------x------|


                                         
----------------------------------------|
----------------------------------------|
----------------------------------------|
----------------------10----------------|
--------10-----12--------10-x-13---12-x-|
--8-8-8----8-8----x-x------------x------|


                                         
----------------------------------------|
----------------------------------------|
----------------------------------------|
----------------------10----------------|
--------10-----12--------10-x-13---12-x-|
--8-8-8----8-8----x-x------------x------|


                                         
----------------------------------------|
----------------------------------------|
----------------------------------------|
----------------------10----------------|
--------10-----12--------10-x-13---12-x-|
--8-8-8----8-8----x-x------------x------|


                                                                               
----------------------------------------|-------------------------------------|
----------------------------------------|-------------------------------------|
----------------------------------------|-------------------------------------|
----------------------10----------------|----------------------10------7/---x-|
--------10-----12--------10-x-13---12-x-|--------10-----12--------10---7/---x-|
--8-8-8----8-8----x-x------------x------|--8-8-8----8-8----x-x-------x--------|


                                         
----------------------------------------|
----------------------------------------|
----------------------------------------|
----------------------------------------|
--10-----12-----13-------12---10---12---|
--8--8-8----8-8----8-8-8----x-8--x-8--x-|


                                         
----------------------------------------|
----------------------------------------|
----------------------------------------|
--10-----12-----13-------12---10---12---|
--8--8-8----8-8----8-8-8----x-8--x-8--x-|
----------------------------------------|


                                         
----------------------------------------|
----------------------------------------|
----------------------------------------|
----------------------------------------|
--10-----12-----13-------12---10---12---|
--8--8-8----8-8----8-8-8----x-8--x-8--x-|


                                         
----------------------------------------|
----------------------------------------|
----------------------------------------|
--10-----12-----13-------12---10---12---|
--8--8-8----8-8----8-8-8----x-8--x-8--x-|
----------------------------------------|


                                         
----------------------------------------|
----------------------------------------|
----------------------------------------|
----------------------------------------|
--10-----12-----13-------12---10---12---|
--8--8-8----8-8----8-8-8----x-8--x-8--x-|


                                         
----------------------------------------|
----------------------------------------|
----------------------------------------|
--10-----12-----13-------12---10---12---|
--8--8-8----8-8----8-8-8----x-8--x-8--x-|
----------------------------------------|


                                         
----------------------------------------|
----------------------------------------|
----------------------------------------|
----------------------------------------|
--10-----12-----13-------12---10---12---|
--8--8-8----8-8----8-8-8----x-8--x-8--x-|


                                         
----------------------------------------|
----------------------------------------|
----------------------------------------|
--10-----12-----13-------12---10---12---|
--8--8-8----8-8----8-8-8----x-8--x-8--x-|
----------------------------------------|


                                         
----------------------------------------|
----------------------------------------|
----------------------------------------|
----------------------10----------------|
--------10-----12--------10-x-13---12-x-|
--8-8-8----8-8----x-x------------x------|


                                         
----------------------------------------|
----------------------------------------|
----------------------------------------|
----------------------10----------------|
--------10-----12--------10-x-13---12-x-|
--8-8-8----8-8----x-x------------x------|


                                                                             
----------------------------------------|-----------------------------------|
----------------------------------------|-----------------------------------|
----------------------------------------|-----------------------------------|
----------------------10----------------|----------------------10------7/---|
--------10-----12--------10-x-13---12-x-|--------10-----12--------10-x-7/---|
--8-8-8----8-8----x-x------------x------|--8-8-8----8-8----x-x--------------|


                                                              
------------------------------|------------------------------|
------------------------------|------------------------------|
------------------------------|------------------------------|
--------2--------2-----x-x-x--|--------2--------2---------2--|
--0-1-2----0-1-2-------x-x-x--|--0-1-2----0-1-2--------------|
--------------------0---------|--------------------0--3h0----|


                                                           
------------------------------|---------------------------|
------------------------------|---------------------------|
------------------------------|--------------------2------|
--------2--------2-----x-x-x--|--------2--------2--2------|
--0-1-2----0-1-2-------x-x-x--|--0-1-2----0-1-2----0------|
--------------------0---------|---------------------------|


                                         
----------------------------------------|
----------------------------------------|
----------------------------------------|
----------------------10----------------|
--------10-----12--------10-x-13---12-x-|
--8-8-8----8-8----x-x------------x------|


                                         
----------------------------------------|
----------------------------------------|
----------------------------------------|
----------------------10----------------|
--------10-----12--------10-x-13---12-x-|
--8-8-8----8-8----x-x------------x------|


                                         
----------------------------------------|
----------------------------------------|
----------------------------------------|
----------------------10----------------|
--------10-----12--------10-x-13---12-x-|
--8-8-8----8-8----x-x------------x------|


                                         
----------------------------------------|
----------------------------------------|
----------------------------------------|
----------------------10----------------|
--------10-----12--------10-x-13---12-x-|
--8-8-8----8-8----x-x------------x------|


                                         
----------------------------------------|
----------------------------------------|
----------------------------------------|
----------------------10----------------|
--------10-----12--------10-x-13---12-x-|
--8-8-8----8-8----x-x------------x------|


                                         
----------------------------------------|
----------------------------------------|
----------------------------------------|
----------------------10----------------|
--------10-----12--------10-x-13---12-x-|
--8-8-8----8-8----x-x------------x------|

[ Tab from: http://www.guitartabs.cc/tabs/a/aerosmith/walk_this_way_tab.html ]
                                                                             
----------------------------------------|-----------------------------------|
----------------------------------------|-----------------------------------|
----------------------------------------|-----------------------------------|
----------------------10----------------|----------------------10------7/---|
--------10-----12--------10-x-13---12-x-|--------10-----12--------10---7/---|
--8-8-8----8-8----x-x------------x------|--8-8-8----8-8----x-x-------x------|


                                                              
------------------------------|------------------------------|
------------------------------|------------------------------|
------------------------------|------------------------------|
--------2--------2-----x-x-x--|--------2--------2---------2--|
--0-1-2----0-1-2-------x-x-x--|--0-1-2----0-1-2--------------|
--------------------0---------|--------------------0--3h0----|


                                                           
------------------------------|---------------------------|
------------------------------|---------------------------|
------------------------------|--------------------2------|
--------2--------2-----x-x-x--|--------2--------2--2------|
--0-1-2----0-1-2-------x-x-x--|--0-1-2----0-1-2----0------|
--------------------0---------|---------------------------|


                                         
----------------------------------------|
----------------------------------------|
----------------------------------------|
----------------------10----------------|
--------10-----12--------10-x-13---12-x-|
--8-8-8----8-8----x-x------------x------|


                                         
----------------------------------------|
----------------------------------------|
----------------------------------------|
----------------------10----------------|
--------10-----12--------10-x-13---12-x-|
--8-8-8----8-8----x-x------------x------|


                                         
----------------------------------------|
----------------------------------------|
----------------------------------------|
----------------------10----------------|
--------10-----12--------10-x-13---12-x-|
--8-8-8----8-8----x-x------------x------|


                                         
----------------------------------------|
----------------------------------------|
----------------------------------------|
----------------------10----------------|
--------10-----12--------10-x-13---12-x-|
--8-8-8----8-8----x-x------------x------|


                                         
----------------------------------------|
----------------------------------------|
----------------------------------------|
----------------------10----------------|
--------10-----12--------10-x-13---12-x-|
--8-8-8----8-8----x-x------------x------|


                                         
----------------------------------------|
----------------------------------------|
----------------------------------------|
----------------------10----------------|
--------10-----12--------10-x-13---12-x-|
--8-8-8----8-8----x-x------------x------|


                                                                               
----------------------------------------|-------------------------------------|
----------------------------------------|-------------------------------------|
----------------------------------------|-------------------------------------|
----------------------10----------------|----------------------10------7/---x-|
--------10-----12--------10-x-13---12-x-|--------10-----12--------10---7/---x-|
--8-8-8----8-8----x-x------------x------|--8-8-8----8-8----x-x-------x--------|


                                         
----------------------------------------|
----------------------------------------|
----------------------------------------|
----------------------------------------|
--10-----12-----13-------12---10---12---|
--8--8-8----8-8----8-8-8----x-8--x-8--x-|


                                         
----------------------------------------|
----------------------------------------|
----------------------------------------|
--10-----12-----13-------12---10---12---|
--8--8-8----8-8----8-8-8----x-8--x-8--x-|
----------------------------------------|


                                         
----------------------------------------|
----------------------------------------|
----------------------------------------|
----------------------------------------|
--10-----12-----13-------12---10---12---|
--8--8-8----8-8----8-8-8----x-8--x-8--x-|


                                         
----------------------------------------|
----------------------------------------|
----------------------------------------|
--10-----12-----13-------12---10---12---|
--8--8-8----8-8----8-8-8----x-8--x-8--x-|
----------------------------------------|


                                         
----------------------------------------|
----------------------------------------|
----------------------------------------|
----------------------------------------|
--10-----12-----13-------12---10---12---|
--8--8-8----8-8----8-8-8----x-8--x-8--x-|


                                         
----------------------------------------|
----------------------------------------|
----------------------------------------|
--10-----12-----13-------12---10---12---|
--8--8-8----8-8----8-8-8----x-8--x-8--x-|
----------------------------------------|


                                         
----------------------------------------|
----------------------------------------|
----------------------------------------|
----------------------------------------|
--10-----12-----13-------12---10---12---|
--8--8-8----8-8----8-8-8----x-8--x-8--x-|


                                         
----------------------------------------|
----------------------------------------|
----------------------------------------|
--10-----12-----13-------12---10---12---|
--8--8-8----8-8----8-8-8----x-8--x-8--x-|
----------------------------------------|


                                         
----------------------------------------|
----------------------------------------|
----------------------------------------|
----------------------10----------------|
--------10-----12--------10-x-13---12-x-|
--8-8-8----8-8----x-x------------x------|


                                         
----------------------------------------|
----------------------------------------|
----------------------------------------|
----------------------10----------------|
--------10-----12--------10-x-13---12-x-|
--8-8-8----8-8----x-x------------x------|


                                                                             
----------------------------------------|-----------------------------------|
----------------------------------------|-----------------------------------|
----------------------------------------|-----------------------------------|
----------------------10----------------|----------------------10------7/---|
--------10-----12--------10-x-13---12-x-|--------10-----12--------10-x-7/---|
--8-8-8----8-8----x-x------------x------|--8-8-8----8-8----x-x--------------|


                                                              
------------------------------|------------------------------|
------------------------------|------------------------------|
------------------------------|------------------------------|
--------2--------2-----x-x-x--|--------2--------2---------2--|
--0-1-2----0-1-2-------x-x-x--|--0-1-2----0-1-2--------------|
--------------------0---------|--------------------0--3h0----|


                                                              
------------------------------|------------------------------|
------------------------------|------------------------------|
------------------------------|------------------------------|
--------2--------2-----x-x-x--|--------2--------2---------2--|
--0-1-2----0-1-2-------x-x-x--|--0-1-2----0-1-2--------------|
--------------------0---------|--------------------0--3h0----|


                                                              
------------------------------|------------------------------|
------------------------------|------------------------------|
------------------------------|------------------------------|
--------2--------2-----x-x-x--|--------2--------2---------2--|
--0-1-2----0-1-2-------x-x-x--|--0-1-2----0-1-2--------------|
--------------------0---------|--------------------0--3h0----|


                                                              
------------------------------|------------------------------|
------------------------------|------------------------------|
------------------------------|------------------------------|
--------2--------2-----x-x-x--|--------2--------2---------2--|
--0-1-2----0-1-2-------x-x-x--|--0-1-2----0-1-2--------------|
--------------------0---------|--------------------0--3h0----|


                                                              
------------------------------|------------------------------|
------------------------------|------------------------------|
------------------------------|------------------------------|
--------2--------2-----x-x-x--|--------2--------2---------2--|
--0-1-2----0-1-2-------x-x-x--|--0-1-2----0-1-2--------------|
--------------------0---------|--------------------0--3h0----|


                                                              
------------------------------|------------------------------|
------------------------------|------------------------------|
------------------------------|------------------------------|
--------2--------2-----x-x-x--|--------2--------2---------2--|
--0-1-2----0-1-2-------x-x-x--|--0-1-2----0-1-2--------------|
--------------------0---------|--------------------0--3h0----|


                                                              
------------------------------|------------------------------|
------------------------------|------------------------------|
------------------------------|------------------------------|
--------2--------2-----x-x-x--|--------2--------2---------2--|
--0-1-2----0-1-2-------x-x-x--|--0-1-2----0-1-2--------------|
--------------------0---------|--------------------0--3h0----|


                                                              
------------------------------|------------------------------|
------------------------------|------------------------------|
------------------------------|------------------------------|
--------2--------2-----x-x-x--|--------2--------2---------2--|
--0-1-2----0-1-2-------x-x-x--|--0-1-2----0-1-2--------------|
--------------------0---------|--------------------0--3h0----|


                                                              
------------------------------|------------------------------|
------------------------------|------------------------------|
------------------------------|------------------------------|
--------2--------2-----x-x-x--|--------2--------2---------2--|
--0-1-2----0-1-2-------x-x-x--|--0-1-2----0-1-2--------------|
--------------------0---------|--------------------0--3h0----|


                                                              
------------------------------|------------------------------|
------------------------------|------------------------------|
------------------------------|------------------------------|
--------2--------2-----x-x-x--|--------2--------2---------2--|
--0-1-2----0-1-2-------x-x-x--|--0-1-2----0-1-2--------------|
--------------------0---------|--------------------0--3h0----|


                                                              
------------------------------|------------------------------|
------------------------------|------------------------------|
------------------------------|------------------------------|
--------2--------2-----x-x-x--|--------2--------2---------2--|
--0-1-2----0-1-2-------x-x-x--|--0-1-2----0-1-2--------------|
--------------------0---------|--------------------0--3h0----|


                                                              
------------------------------|------------------------------|
------------------------------|------------------------------|
------------------------------|------------------------------|
--------2--------2-----x-x-x--|--------2--------2---------2--|
--0-1-2----0-1-2-------x-x-x--|--0-1-2----0-1-2--------------|
--------------------0---------|--------------------0--3h0----|


                                                                               
------------------------------|---------------------------|------------------||
------------------------------|---------------------------|------------------||
------------------------------|---------------------------|------------------||
--------2--------2-----x-x-x--|--------2--------2---------|------------------||
--0-1-2----0-1-2-------x-x-x--|--0-1-2----0-1-2-----------|------------------||
--------------------0---------|--------------------0------|------------------||
Comments