Aerosmith - The Grind Chords & Tabs

 

The Grind Chords & Tabs

Aerosmith Chords & Tabs

Version: 3 Type: Tab 0 ratings
1 star 2 stars 3 stars 4 stars 5 stars
comments

The Grind Tab

(0:02-0:21)
|-----9-----9------------------------------------------9-----9--|
|-----9-----9------9-9p7-------7--7--------------------9-----9--|
|-----9-----9------------9--9--------9fb-9fb-9fb-------9-----9--|
|---------------------------------------------------------------|
|---------------------------------------------------------------|
|---------------------------------------------------------------|
[ Tab from: http://www.guitartabs.cc/tabs/a/aerosmith/the_grind_tab_ver_3.html ]
|-12p9r-----------------------------|
|---------12b-----------------------|
|--------------11-11p9--------------|
|-------------------------11---11---|
|-----------------------------------|
|-----------------------------------|

(3:38-3:42)
|----------19-16---------------------------|
|-21-17----------19~-------21-17b----------|
|-------18-----------21-17--------18b-18fb-|
|------------------------------------------|
|------------------------------------------|
|------------------------------------------|
Comments