Aerosmith - Sweet Emotion Chords & Tabs

 

Sweet Emotion Chords & Tabs

Aerosmith Chords & Tabs

Version: 5 Type: Tab 0 ratings
1 star 2 stars 3 stars 4 stars 5 stars
comments

Sweet Emotion Tab

Standard tuning 

This is basically gonna be the rhythm. No solo.

Verse Riff
|-------------------------|
|-3-----------------------|
|-2-2~-2-------2----------|
|-0-2~-2-------2----------|
|---0~-0-3p0---0----------|
|------------3------------|

Chorus *Not really needed but I think it sounds somewhat better*
|------3------------------|
|------3----3-------------|
|-2-2--0--2-2-------------|
|-2-2--0--2-0-------------|
|-0-0--2--0---------------|
|------3------------------|
[ Tab from: http://www.guitartabs.cc/tabs/a/aerosmith/sweet_emotion_tab_ver_5.html ]
Bridge 
|Play as many times-in song----|-Ending----------------| Play it fast. It
|------------------------------|-----------------------| might not look
|------------------------------|-----------------------| right but I slowed
|------------------------------|-----------------------| the song down and
|-5p3--------------------------|-5p3-------------------| turned it up and 
|-----5--0-2-2--0-3-3--0-4-4-5-|-----5--0-2-2--0-3-4-5-| this sounds like it.

Another ending for bridge later played in the song before the solo.
|--------------------|
|--------------------|
|--------------------|
|--------------------|
|-5p3----------------|
|-----5--0-2-2b------|

Outro
|-------------|
|-------------|
|------7--9-9-|
|-2-2--7--9-9-|
|-2-2--5--7-7-|
|-0-0---------|
Comments