Aerosmith - Sweet Emotion Chords & Tabs

 

Sweet Emotion Chords & Tabs

Aerosmith Chords & Tabs

Version: 2 Type: Bass Tab 0 ratings
1 star 2 stars 3 stars 4 stars 5 stars
comments

Sweet Emotion Bass Tab

Aerosmith- Sweet Emotions Bass Tab

Intro- this is close, but not quite right, im still workin on it

E----12-12---12--------12------------------------------
A------------------------------------------------------
D-------------------------12/11/12/11------------------
G----------12-14-14------------------------------------

Main Riff
[ Tab from: http://www.guitartabs.cc/tabs/a/aerosmith/sweet_emotion_btab_ver_2.html ]
E---------------3--------------------------------------
A----5-0-0-0p30---0------------------------------------
D------------------------------------------------------
G------------------------------------------------------

Nonvocal riff

E----------22-33--3-4-5--------------------------------
A---5-3-0----------------------------------------------
D------------------------------------------------------
G------------------------------------------------------

Outro

To lazy to put it down, not hard tho
Comments