Aerosmith - Same Old Song And Dance Chords & Tabs

 

Same Old Song And Dance Chords & Tabs

Aerosmith Chords & Tabs

Version: 2 Type: Tab

Same Old Song And Dance Tab

   
-----------------------------------------------------------------------------
		   Same Old Song and Dance - Aerosmith
-----------------------------------------------------------------------------
Tabbed by: Pauly s
Email: pscarinci@aol.com

Note: Listen to the song to get the timing right. I am pretty sure this is all
correct. Email me with any questions you have!


e|-------------------------------------------------|
B|---------2-2-------------------------------------|
G|---------2-2-------------------9-9---------------|
D|---------2-2-------------------9-9---------------|  Intro
A|-2-2-----0-0---2--5--2-----2---7-7---------------|
E|-0-0--3-----------------3--0---------------------|

e|-------------------------------------------------|
B|---------2-2-------------------------------------|
G|---------2-2-------------------------------------|
D|---------2-2-------------------------------------|  3X
A|-2-2-----0-0---2--5--2-----2---------------------|
E|-0-0--3-----------------3--0---------------------|

e|---------3-0-------------------------------------|
B|-5--3-3-------3--5-------------------------------|
G|-4--4-4----------4-------------------------------|
D|-------------------------------------------------|  4X
A|-------------------------------------------------|
E|-------------------------------------------------|

1. Get yourself a cooler lay yourself low
2. Coincidental murder with nothing to show
3. The judge constipation will go to his head
4. And his wife's aggravation you're soon enough dead

e|---3----5----3----5------------------------------|
B|---3----5----5----7------------------------------|
G|---4----6----5----7------------------------------|
D|---5----7----5----7------------------------------|  1X
A|---5----7----3----5------------------------------|
E|---3----5----------------------------------------|

It's the same old story
Same old song and dance my friend

e|-------------------------------------------------|
B|---------2-2-------------------------------------|
G|---------2-2-------------------------------------|
D|---------2-2-------------------------------------|  1X
A|-2-2-----0-0---2--5--2-----2---------------------|
E|-0-0--3-----------------3--0---------------------|


e|---3----5----3----5------------------------------|
B|---3----5----5----7------------------------------|
G|---4----6----5----7------------------------------|
D|---5----7----5----7------------------------------|  1X
A|---5----7----3----5------------------------------|
E|---3----5----------------------------------------|

It's the same old story
Same old song and dance my friend

e|-------------------------------------------------|
B|---------2-2-------------------------------------|
G|---------2-2-------------------------------------|
D|---------2-2-------------------------------------|  1X
A|-2-2-----0-0---2--5--2-----2---------------------|
E|-0-0--3-----------------3--0---------------------|


e|---------3-0-------------------------------------|
B|-5--3-3-------3--5-------------------------------|
G|-4--4-4----------4-------------------------------|
D|-------------------------------------------------|  4X
A|-------------------------------------------------|
E|-------------------------------------------------|

1. Shady lookin loser you played with my gun
2. No smooth face laywer could get ya undone
3. Say love ain't the same on the south side of town
4. You could look but you ain't gonna find it around


e|---3----5----3----5------------------------------|
B|---3----5----5----7------------------------------|
G|---4----6----5----7------------------------------|
D|---5----7----5----7------------------------------|  1X
A|---5----7----3----5------------------------------|
E|---3----5----------------------------------------|


e|-------------------------------------------------|
B|---------2-2-------------------------------------|
G|---------2-2-------------------------------------|
D|---------2-2-------------------------------------|  1X
A|-2-2-----0-0---2--5--2-----2---------------------|
E|-0-0--3-----------------3--0---------------------|


e|---3----5----3----5----7----11-11----------------|
B|---3----5----5----7----9----13-13----------------|
G|---4----6----5----7----9----13-13----------------|
D|---5----7----5----7----9----13-13----------------|  1X
A|---5----7----3----5----7----11-11----------------|
E|---3----5----------------------------------------|


It's the same old Story
Same Old Song And Dance, my friend
It's the same old story
Same old story
Same Old Song And Dance
[ Tab from: http://www.guitartabs.cc/tabs/a/aerosmith/same_old_song_and_dance_tab_ver_2.html ]
e|-------------------------------------------------|
B|-------------------------------------------------|
G|--7--8--9----------------------------------------|
D|--7--8--9----------------------------------------|  1X
A|--5--6--7----------------------------------------|
E|-------------------------------------------------|


e|-------------------------------------------------|
B|---------2-2-------------------------------------|
G|---------2-2-------------------------------------|
D|---------2-2-------------------------------------|  4X
A|-2-2-----0-0---2--5--2-----2---------------------|
E|-0-0--3-----------------3--0---------------------|


e|-------------------------------------------------|
B|-------------------------------------------------|
G|-------------------------------------------------|
D|--9-9---7---5---7--------------------------------|
A|--9-9---7---5---7--------------------------------|  7X
E|--7-7---5---3---5--------------------------------|

Fate comes a-knockin'
Doors start lockin'
Your old time connection
Change your direction
You ain't gonna change it
Can't rearrange it
Can't stand the pain

e|-------------------------------------------------|
B|-------------------------------------------------|
G|--4--6--7--8--9----------------------------------|
D|--4--6--7--8--9----------------------------------|  1X
A|--2--4--5--6--7----------------------------------|
E|-------------------------------------------------|

When it's all the same to you, my friend


e|-------------------------------------------------|
B|---------2-2-------------------------------------|
G|---------2-2-------------------------------------|
D|---------2-2-------------------------------------|  1X
A|-2-2-----0-0---2--5--2-----2---------------------|
E|-0-0--3-----------------3--0---------------------|


e|-------------------------------------------------|
B|-------------------------------------------------|
G|-------------------------------------------------|
D|--9-9---7---5---7--------------------------------|
A|--9-9---7---5---7--------------------------------|  7X
E|--7-7---5---3---5--------------------------------|


e|-------------------------------------------------|
B|---------2-2-------------------------------------|
G|---------2-2-------------------------------------|
D|---------2-2-------------------------------------|  2X
A|-2-2-----0-0---2--5--2-----2---------------------|
E|-0-0--3-----------------3--0---------------------|


e|---------3-0-------------------------------------|
B|-5--3-3-------3--5-------------------------------|
G|-4--4-4----------4-------------------------------|
D|-------------------------------------------------|  4X
A|-------------------------------------------------|
E|-------------------------------------------------|

1. When you're low down and dirty from walkin' the street
2. With your old hurdy gurdy no one to meet
3. Said love ain't the same on the south side of town
4. You could look but you ain't gonna find it around


e|---3----5----3----5------------------------------|
B|---3----5----5----7------------------------------|
G|---4----6----5----7------------------------------|
D|---5----7----5----7------------------------------|  1X
A|---5----7----3----5------------------------------|
E|---3----5----------------------------------------|

It's the same old story
Same old song and dance my friend

e|-------------------------------------------------|
B|---------2-2-------------------------------------|
G|---------2-2-------------------------------------|
D|---------2-2-------------------------------------|  1X
A|-2-2-----0-0---2--5--2-----2---------------------|
E|-0-0--3-----------------3--0---------------------|


e|---3----5----3----5----7----11-11----------------|
B|---3----5----5----7----9----13-13----------------|
G|---4----6----5----7----9----13-13----------------|
D|---5----7----5----7----9----13-13----------------|  1X
A|---5----7----3----5----7----11-11----------------|
E|---3----5----------------------------------------|


It's the same old Story
Same Old Song And Dance, my friend
It's the same old story
Same old story
Same Old Song And Dance


e|-------------------------------------------------|
B|-------------------------------------------------|
G|--7--8--9----------------------------------------|
D|--7--8--9----------------------------------------|  1X
A|--5--6--7----------------------------------------|
E|-------------------------------------------------|


e|---------3-0-------------------------------------|
B|-5--3-3-------3--5-------------------------------|
G|-4--4-4----------4-------------------------------|
D|-------------------------------------------------|  4X
A|-------------------------------------------------|
E|-------------------------------------------------|


| /  slide up
| \  slide down
| h  hammer-on
| p  pull-off
| ~  vibrato
| +  harmonic
| x  Mute note
============================================================================