Aerosmith - Road Runner Chords & Tabs

 

Road Runner Chords & Tabs

Aerosmith Chords & Tabs

Version: 1 Type: Tab 0 ratings
1 star 2 stars 3 stars 4 stars 5 stars
comments

Road Runner Tab

This is the main part of the song, I have not figured out the fills.
This is my first attempt at tabbing a song.  I don't know if it is
100% correct, but it sounds damn close when I play along.  I put the
counting in where different rhythms occur to try and give a feel
for the timing and length of each note.  Enjoy.


There is intro stuff here that I have not figured out. It's the "Lady's and
gentlemen" part. 

full band enters and song gets going
|------------------|-----------------|
|------------------|-----------------|
|------------------|-----------------|
|----------------2-|---------------2-|
|----------2-2-4---|---------2-2-4---|
|--0-0-3-4---------|-0-0-3-4---------|

Count rhythm as:  1 & 2 & 3 & 4 &


  Verse
||------------------|-----------------|-----------------|------------------|
||------------------|-----------------|-----------------|------------------|
||*-----------------|-----------------|-----------------|------------------|
||*---------------2-|---------------2-|---------------2-|---------------2--|
||----------2-2-4---|---------2-2-4---|---------2-2-4---|---------2-2-4----|
||--0-0-3-4---------|-0-0-3-4---------|-0-0-3-4---------|-0-0-3-4----------|


|------------------|-----------------|-----------------|------------------|
|------------------|-----------------|-----------------|------------------|
|----------------2-|---------------2-|-----------------|------------------|
|----------2-2-4---|---------2-2-4---|---------------2-|---------------2--|
|--0-0-3-4---------|-0-0-3-4---------|---------2-2-4---|---------2-2-4----|
|------------------|-----------------|-0-0-3-4---------|-0-0-3-4----------|

[ Tab from: http://www.guitartabs.cc/tabs/a/aerosmith/road_runner_tab.html ]
|------------------|-----------------|-----------------|------------------||
|------------------|-----------------|-----------------|------------------||
|--4---4---4---4-3-|-2---------------|-----------------|---4-4-4---4-4-4-*||
|--4---4---4---4-3-|-2---------------|---------------2-|---4-4-4---4-4-4-*||
|--2---2---2---2-1-|-0---------------|---------2-2-4---|---2-2-2---2-2-2--||
|------------------|-----------------|-0-0-3-4---------|------------------||
   1   2   3   4 &   1 rest				   & 2 &   & 4 &


|------------------|-----------------|-----------------|------------------|
|------------------|-----------------|-----------------|------------------|
|------------------|-----------------|-----------------|------------------|
|----------------2-|-----------------|---------------2-|------------------|
|----------2-2-4---|-----------------|---------2-2-4---|------------------|
|--0-0-3-4---------|-0---------------|-0-0-3-4---------|-0----------------|
			rest				    rest


|------------------|-----------------|-----------------|------------------|
|------------------|-----------------|-----------------|------------------|
|----------------2-|-----------------|-----------------|------------------|
|----------2-2-4---|-----------------|---------------2-|------------------|
|--0-0-3-4---------|-0---------------|---------2-2-4---|------------------|
|------------------|-----------------|-0-0-3-4---------|-0----------------|
			rest				    rest


|------------------|-----------------|-----------------|------------------|
|------------------|-----------------|-----------------|------------------|
|--4-4-4-4-4-4-3-3-|-2---------------|-----------------|---4-4-4---4-4-4--|
|--4-4-4-4-4-4-3-3-|-2---------------|---------------2-|---4-4-4---4-4-4--|
|--2-2-2-2-2-2-1-1-|-0---------------|---------2-2-4---|---2-2-2---2-2-2--|
|------------------|-----------------|-0-0-3-4---------|------------------|
   1 & 2 & 3 & 4 &   1 rest
Comments