Aerosmith - Rag Doll Chords & Tabs

 

Rag Doll Chords & Tabs

Aerosmith Chords & Tabs

Version: 1 Type: Tab 0 ratings
1 star 2 stars 3 stars 4 stars 5 stars
comments

Rag Doll Tab

   
#----------------------------------PLEASE NOTE---------------------------------#
#This file is the author's own work and represents their interpretation of the #
#song. You may only use this file for private study, scholarship, or research. #
#------------------------------------------------------------------------------#

RAG DOLL
As recorded by Aerosmith
(From the 2001 Album PERMANENT VACATION)


Gtr I (E A D G B E) - 'Rythym'
Gtr II (E B E G# B E) - 'Lead'


 Intro
  Moderate Rock Q=96(16=s16)
 4/4
  Gtr I
  W          E e S e. S S  S S +S      E S
|----------|-------------------------------|
|----------|-------------------------------|
|----------|---9-9p7--9-9-11-9-(9)-----9\--|
|----------|---9-9p7--9-9-11-9-(9)-----9\--|
|----------|-7---------------------------4s|
|----------|-------------------------------|
|
| Gtr II
| W          H        Q         S   A  E.
|----------|-------------------------------|
|----------|-------------------------------|
|----------|-------------------------------|
|----------|-----------------------12s11s==|
|----------|-------------------------------|
|----------|-------------------------------|


    S  S S S S E.   S  S  S S +S  S S S
|-----------------------------------------|
|-----------------------------------------|
|--------9---9s7----9--9-11-9-(9)-9\------|
|------9-9-9-9s7----9--9-11-9-(9)-9\------|
|---7---------------7---------------------|
|-------------------------------------4s==|
|
|   ~~~~~~~~~~~~~~~~~~~
|   H              +E     E    S  S S S
|-----------------------------------------|
|-----------------------------------------|
|-----------------------------------------|
|--12-------------(12)------------6s7s5s==|
|-(12)------------(12)--------------------|
|-----------------------------------------|


   S  S e S E. S S  S S  +S  E  S    E  e S E. S S  S  S  +Q
|---------------------------------|---------------------------|
|---------------------------------|---------------------------|
|---------------------------------|---------------------------|
|-------9-9s7--9-9-11-9--(9)-9\---|-----9-9p7--9-9-11--9--(9)-|
|-----9-9-9s7--9-9-11-9--(9)-9\---|-----9-9p7--9-9-11--9--(9)-|
|--7-----------7-7--------------5s|==7---------7-7-----7--(7)-|
|
|  ~~~                                           ~
|  H.            S  a E.            +Q    E S  S Q    +S   E.
|---------------------------------|--------------7----(7)-----|
|---------------------------------|------------7--------------|
|-------------------6s5-----------|-(5)s==6s7-----------------|
|--7------------------------------|-----------------------/9s=|
|-(7)-----------------------------|---------------------------|
|---------------------------------|---------------------------|


   E e S E.   S    S  S  S +S   E  S
|--------------------------------------|
|--------------------------------------|
|----9-9p7----9----9-11--9-(9)--9\-----|
|----9-9p7----9----9-11--9-(9)--9\-----|
|-/7-------------------------------4s==|
|--------------------------------------|
|
|  ~~
|  H         +E    E  S  S  S   S
|--------------------------------------|
|--------------------------------------|
|--------------------------------------|
|-12--------(12)------------0----------|
|----------------/12-12s10-----12------|
|--------------------------------------|


    E  e S E. S S  S S  +S   E  S
|---------------------------------|
|---------------------------------|
|------9-9s7--9-9-11-9--(9)--9\---|
|------9-9s7--9-9-11-9--(9)--9\---|
|---7---------------------------4s|
|---------------------------------|
|
|   ~~~~
|  +H.                  +S   E  S
|---------------------------------|
|---------------------------------|
|---------------------------------|
|---------------------------12s19-|
|-(12)-----------------(12)-------|
|---------------------------------|


   E    e  S E.     S  S  S  S  +S  E     S    E    e  S S  e    Q     Q
|-------------------------------------------|-------------------------------||
|-------------------------------------------|-------------------------------||
|------11-11p9-----11-11-13-11-(11)11\------|------11-11p9-11---11\---/7----||
|------11-11p9-----11-11-13-11-(11)11\------|------11-11p9-11---11\---/7----||
|--9----------------9--9-----9--(9)-------4s|==9-----------------9\---/5----||
|-------------------------------------------|-------------------------------||
|
|  ~~~~
|  Q..           S  E     S  S   E      E      Q..            S  Q     E. S
|-------------------------------------------|-14s=============9-------------||
|---------------13--------------13s====14---|-14s=============9-------------||
|------------------13s===14s13--13s====14---|------------------------/10----||
|-14----------------------------------------|-------------------14\--/10----||
|-------------------------------------------|-------------------------------||
|-------------------------------------------|-------------------------------||


 Chorus
   S  S e Q  S S S S  S  E.   S S e Q  S S S S S E.
|--------------------------|------------------------|
|--------------------------|------------------------|
|------------------------2-|---------------------2--|
|------------0-1-2-3--4----|-----------0-1-2-3-4----|
|--0--1-2-2----------------|--0-1-2-2---------------|
|--------------------------|------------------------|
|
|  ~~~                        ~~~~~~~~~~~~~~~~~~~~~~~
|  H.                +S  E.   W
|--------------------------|------------------------|
|--------------------------|------------------------|
|--------------------------|------------------------|
|-/7-----------------(7)-7S|=10---------------------|
|------------------------7S|=10---------------------|
|--------------------------|------------------------|


   S   S e Q  S S S S S E.
|-----------------------------|
|-----------------------------|
|-----------------------2-----|
|-------------0-1-2-3-4-------|
|--0---1-2-2------------------|
|-----------------------------|
|
|~~~~~~
|  H..                     E
|-/5-----------------------5/-|
|-/5-----------------------5/-|
|-/5-----------------------5/-|
|-/5-----------------------5/-|
|-----------------------------|
|-----------------------------|


  S S e Q   E. S +Q      S   S e Q  S S S S S E.
|---------------------|----------------------------|
|-----------0--0-(0)--|----------------------------|
|-----------0--1-(1)--|-----------------------2----|
|-----------0--2-(2)--|-------------0-1-2-3-4------|
|-0-1-2-2------2-(2)--|--0---1-2-2-----------------|
|-----------3--0-(0)--|----------------------------|
|
|       ~
| Q     Q   E. S +Q      H..                     E
|----------/3--0-(0)--|----------------------------|
|----------/3--0-(0)--|----------------------------|
|-5s====7--/3--0-(0)--|----------------------------|
|-5s====7--/3--0-(0)--|-/7-----------------------7-|
|---------------------|-/7-----------------------7-|
|---------------------|----------------------------|


    S  S e Q  S S S S   S   E.
|------------------------------|
|------------------------------|
|---------------------------2--|
|-------------0-1-2-3---4------|
|---0--1-2-2-------------------|
|------------------------------|
|
|   ~~~~
|   H.                 +S   E.
|------------------------------|
|------------------------------|
|------------------------------|
|-/10-----------------(10)-10\-|
|-/10-----------------(10)-10\-|
|------------------------------|


                                                          2/4
   S  S e Q  S S S S  S  E.     S  S e Q       E. S +Q      E. S +E   E
|----------------------------|---------------------------|----------------||
|----------------------------|-----------------0--0-(0)--|--7--5-(5)------||
|------------------------2---|-----------------0--1-(1)--|--7--6-(6)------||
|------------0-1-2-3--4------|-----------------0--2-(2)--|--7--7-(7)------||
|--0--1-2-2------------------|--0--1-2-2----------2-(2)--|--5--7-(7)--2---||
|----------------------------|-----------------3--0-(0)--|-----5-(5)------||
|
|                               ~~~
|  H.                +S  E S    Q.       +E    E. S +Q      E. S +E  +E
|-/5-----------------(5)-5s7-|----------------/3--0-(0)--|----------------||
|-/5-----------------(5)-5s7-|----------------/3--0-(0)--|----------------||
|-/5-----------------(5)-5s7-|----------------/3--0-(0)--|-10\-5-(5)-(5)/-||
|-/5-----------------(5)-5s7-|-/7--------(7)\-/3--0-(0)--|-10\-5-(5)-(5)/-||
|----------------------------|-/7--------(7)\------------|----------------||
|----------------------------|---------------------------|----------------||


 1st Verse
 4/4
    E  e S E. S S   S   S +E   S S
|----------------------------------|
|----------------------------------|
|------9-9p7--9-9--11---9-(9)\-----|
|------9-9p7--9-9--11---9-(9)\-----|
|--/7----------------------------5s|
|----------------------------------|
|
|   ~~~~
|   H.             +S   A  E.
|----------------------------------|
|----------------------------------|
|-/12-------------(12)-------------|
|-/12-------------(12)-12s10S======|
|----------------------------------|
|----------------------------------|


   E  e S  E. S  S  S  S +S  E.    E e  S E.  S  S  S  S +S  E.
|-------------------------------|-------------------------------|
|-------------------------------|-------------------------------|
|-----9-9p=7--9--9-11--9-(9)-9\-|-------------------------------|
|-----9-9p=7--9--9-11--9-(9)-9\-|----9--9-7---9--9-11--9-(9)-9--|
|--7----------------------------|----9--9-7---9--9-11--9-(9)-9--|
|-------------------------------|-/7----------7--------7-(7)-7--|
|
|  ~~~                               ~~~~~~~~~~~~~~
|  Q.      A  E  Q     S  S  E     E Q.      +E  E +S  A  E.
|-------------------------------|-------------------------------|
|-------------------------------|-/7----------------------------|
|---------------10s===12-10s12--|-/7-------------------7s=5-----|
|-12------12s10----------10s12--|-/7-7-------(7)-------7s=5-----|
|-12------12s10-----------------|----------------7-(7)----------|
|-------------------------------|-------------------------------|


  e  e S E. S S  S S +S   E  S    E  e S E. S S  S S  +S      E.
|------------------------------|-----------------------------------|
|------------------------------|-----------------------------------|
|------------------------------|-----9-9p7--9-9-11-9--(9)-----9\---|
|----9-9p7--9-9-11-9-(9)--9----|-----9-9p7--9-9-11-9--(9)-----9\---|
|----9-9p7--9-9-11-9-(9)--9--6s|==7--------------------------------|
|-7---------7------------------|-----------------------------------|
|
|                                 ~~~
| H.                 +S   E  S    H.                  +S   A  E  S
|------------------------------|-----------------------------------|
|------------------------------|-----------------------------------|
|-7------------------(7)-10----|-12------------------(12)-12s10s12-|
|-7------------------(7)-10s12-|-12------------------(12)-12s10s12-|
|------------------------------|-----------------------------------|
|------------------------------|-----------------------------------|


   e e S E.  S S  S S  +S   E S
|--------------------------------|
|--------------------------------|
|----9-9p7---9-9-11-9--(9)--9----|
|----9-9p7---9-9-11-9--(9)--9-x--|
|--7--------------------------x--|
|--------------------------------|
|
|  ~~~~~~~~~~~~
|  H         Q         +S   E S
|--------------------------------|
|--------------------------------|
|--------------------------10-5s=|
|-12--------12--------(12)-10----|
|-----------12--------(12)-------|
|--------------------------------|


   e  e S E.   S  S   S S +S   E.     e  e S E. S S  S S +S  E  S
|-----------------------------------|-----------------------------|
|-----------------------------------|-----------------------------|
|-----------------------------------|-----------------------------|
|-----9-9-7----9--9--11-9-(9)--9----|----9-9p7--9-9-11-9-(9)-9----|
|-----9-9-7----9--9--11-9-(9)--9----|----9-9p7--9-9-11-9-(9)-9--6s|
|-/7-----------7--------7-(7)--7----|-7---------7-----------------|
|
|  ~~~~~~~~~~~~~~~~~~~~~~~
|  Q.        E   +E     E     +S  E.  H.                 +S  E.
|-----------------------------------|-----------------------------|
|-----------------------------------|-----------------------------|
|--7------------------------------5s|=7------------------(7)-9/---|
|------------7---(7)--------------5s|=7------------------(7)-9/---|
|-----------------------7-----(7)---|-----------------------------|
|-----------------------------------|-----------------------------|


    E   e S E.     S S  S  S  +S  E.
|----------------------------------------|
|----------------------------------------|
|-------9-9p7------9-9-11--9--(9)-9\-----|
|-------9-9p7------9-9-11--9--(9)-9\-----|
|---7------------------------------------|
|----------------------------------------|
|
|   ~~~~~
|   Q..         S  E    S  S  +E      E
|----------------------------------------|
|----------------------------------------|
|-/12------------------------------------|
|-/12-------------10s==12-12-(12)----12--|
|--------------12---------12-(12)--------|
|----------------------------------------|


   e      e S E.        S S  S S  +S  E.
|-------------------------------------------|
|-------------------------------------------|
|---------9-9p7---------9-9-11-9--(9)-9\----|
|---------9-9p7---------9-9-11-9--(9)-9\----|
|-/7----------------------------------------|
|-------------------------------------------|
|
|         ~~~           ~~
|  S  S   Q       a  E  Q         +S  S   E
|-------------------------------------------|
|----------------------12--------(12)-x-----|
|-------/12------12s11-12--------(12)-x-----|
|-12s10-/12------------------------------12s|
|-12s10-/12------------------------------12s|
|-------------------------------------------|


   e   e  S E.       S  S   S   S  +S   E.    e     e     S  S  e  Q     Q
|------------------------------------------|--------------------------------||
|------------------------------------------|--------------------------------||
|-----11-11-9-------11-11--13--11-(11)-11\-|-------11----11s=9-11-11\---/7--||
|-----11-11-9-------11-11--13--11-(11)-11\-|-------11----11s=9-11-11\---/7--||
|-/9-----------------9--9---9---9--(9)--9\-|-/9--------------------9\---/5--||
|------------------------------------------|--------------------------------||
|
|  ~~~                              ~~~~
|  Q.           E    E      E       Q         S  S  S  S  S  S  E  Q     Q
|------------------------------------------|--------------------------------||
|--------------14\-------------------------|--------------------------------||
|--------------14\-/14----(14)-----14------|-14s13s14s13-14s13s14-14\-------||
|-14-----------14\-/14----(14)-----14------|-14s13s14s13-14s13s14-14\--/10--||
|-14-----------------------14--------------|---------------------------/10--||
|------------------------------------------|--------------------------------||


 Chorus
  $
   S  S e Q  S S S S  S  E.   S S e Q  S S S S S E.
|--------------------------|------------------------|
|--------------------------|------------------------|
|------------------------2-|---------------------2--|
|------------0-1-2-3--4----|-----------0-1-2-3-4----|
|--0--1-2-2----------------|--0-1-2-2---------------|
|--------------------------|------------------------|
|
|  ~~~                        ~~~~~~~~~~~~~~~~~~~~~~~
|  H.                +S  E.   W
|--------------------------|------------------------|
|--------------------------|------------------------|
|--------------------------|------------------------|
|-/7-----------------(7)-7S|=10---------------------|
|------------------------7S|=10---------------------|
|--------------------------|------------------------|


   S   S e Q  S S S S S E.
|-----------------------------|
|-----------------------------|
|-----------------------2-----|
|-------------0-1-2-3-4-------|
|--0---1-2-2------------------|
|-----------------------------|
|
|~~~~~~
|  H..                     E
|-/5-----------------------5/-|
|-/5-----------------------5/-|
|-/5-----------------------5/-|
|-/5-----------------------5/-|
|-----------------------------|
|-----------------------------|


  S S e Q   E. S +Q      S   S e Q  S S S S S E.
|---------------------|----------------------------|
|-----------0--0-(0)--|----------------------------|
|-----------0--1-(1)--|-----------------------2----|
|-----------0--2-(2)--|-------------0-1-2-3-4------|
|-0-1-2-2------2-(2)--|--0---1-2-2-----------------|
|-----------3--0-(0)--|----------------------------|
|
|       ~
| Q     Q   E. S +Q      H..                     E
|----------/3--0-(0)--|----------------------------|
|----------/3--0-(0)--|----------------------------|
|-5s====7--/3--0-(0)--|----------------------------|
|-5s====7--/3--0-(0)--|-/7-----------------------7-|
|---------------------|-/7-----------------------7-|
|---------------------|----------------------------|


                    To Coda
    S  S e Q  S S S S   S   E.
|------------------------------|
|------------------------------|
|---------------------------2--|
|-------------0-1-2-3---4------|
|---0--1-2-2-------------------|
|------------------------------|
|
|   ~~~~
|   H.                 +S   E.
|------------------------------|
|------------------------------|
|------------------------------|
|-/10-----------------(10)-10\-|
|-/10-----------------(10)-10\-|
|------------------------------|


                                                          2/4
   S  S e Q  S S S S  S  E.     S  S e Q       E. S +Q      E. S +E   E
|----------------------------|---------------------------|----------------||
|----------------------------|-----------------0--0-(0)--|--7--5-(5)------||
|------------------------2---|-----------------0--1-(1)--|--7--6-(6)------||
|------------0-1-2-3--4------|-----------------0--2-(2)--|--7--7-(7)------||
|--0--1-2-2------------------|--0--1-2-2----------2-(2)--|--5--7-(7)--2---||
|----------------------------|-----------------3--0-(0)--|-----5-(5)------||
|
|                               ~~~
|  H.                +S  E S    Q.       +E    E. S +Q      E. S +E  +E
|-/5-----------------(5)-5s7-|----------------/3--0-(0)--|----------------||
|-/5-----------------(5)-5s7-|----------------/3--0-(0)--|----------------||
|-/5-----------------(5)-5s7-|----------------/3--0-(0)--|-10\-5-(5)-(5)/-||
|-/5-----------------(5)-5s7-|-/7--------(7)\-/3--0-(0)--|-10\-5-(5)-(5)/-||
|----------------------------|-/7--------(7)\------------|----------------||
|----------------------------|---------------------------|----------------||


 2nd Verse
 4/4
    E  e   S  E.   S  S  S S  +E      S  S
|------------------------------------------|
|------------------------------------------|
|------9---9p=7----9--9-11-9--(9)\---------|
|------9---9p=7----9--9-11-9--(9)\---------|
|--/7------------------------------------5s|
|------------------------------------------|
|
|          ~~~~
|   E  E   Q      +E     E    +S    E    S
|------------------------------------------|
|----------------------------------11s==12-|
|------------------------------------------|
|-/12-----12-----(12)----------------------|
|-/12-12-(12)----(12)---12---(12)----------|
|------------------------------------------|


    E  e S E. S S  S S  +S  E.     E  e S E. S S  S S +S  E.
|-------------------------------|------------------------------|
|-------------------------------|------------------------------|
|------9-9p7--9-9-11-9--(9)-9\--|------------------------------|
|------9-9p7--9-9-11-9--(9)-9\--|-----9-9-7--9-9-11-9-(9)-9----|
|---7---------------------------|-----9-9-7--9-9-11-9-(9)-9----|
|-------------------------------|-/7---------7------7-(7)-7----|
|
|   ~~~~                           ~~~
|   H.                  +S  E S    H.                 +S  E S
|--12------------------(12)-----|--7------------------(7)------|
|-(12)-----------------(12)-5s7-|--7------------------(7)-5s7--|
|-------------------------------|------------------------------|
|-------------------------------|------------------------------|
|-------------------------------|------------------------------|
|-------------------------------|------------------------------|


  e  e S E. S S  S S +S  E  S     E e S E.     S  S  S  S +S   E.
|-----------------------------|----------------------------------------|
|-----------------------------|----------------------------------------|
|-----------------------------|-----9-9p7------9--9-11--9-(9)--9\------|
|----9-9p7--9-9-11-9-(9)-9----|-----9-9p7------9--9-11--9-(9)--9\------|
|----9-9p7--9-9-11-9-(9)-9--6s|===7------------------------------------|
|-7---------7-----------------|----------------------------------------|
|
| ~~                              ~~~
| H.                 +S  E  S     H         a  E.       S  S   S  S  S
|-7------------------(7)------|-/12------------------------------------|
|-7------------------(7)-8s12-|-/12--------10s12-----------------------|
|-----------------------------|------------------------11s12--11s12s11s|
|-----------------------------|----------------------------------------|
|-----------------------------|----------------------------------------|
|-----------------------------|----------------------------------------|


   e e S E.   S  S  S  S  +S  E  S
|-----------------------------------|
|-----------------------------------|
|----9-9p7----9--9-11--9--(9)-9-----|
|----9-9p7----9--9-11--9--(9)-9--x--|
|--7-----------------------------x--|
|-----------------------------------|
|
|  ~~
|  H          E.       S  +E.    S
|-----------------------------------|
|-12--------/12---------------------|
|-12--------/12-------12-(12)s==14--|
|-----------------------------------|
|-----------------------------------|
|-----------------------------------|


    e   e     S  E.  S  S  S  S  +S   E.
|----------------------------------------------|
|----------------------------------------------|
|------11----11--9--11-11-13-11-(11)-11\-------|
|------11----11--9--11-11-13-11-(11)-11\-------|
|--/9----------------9--9--9--9--(9)--9\-------|
|----------------------------------------------|
|
|   E   S  S  S  E.  S  S  E      S   E   +S
|----------------------------------------------|
|--14-----------14--14s13s14----/14--14--(14)\-|
|-(14)-14s13s14-----14s13s14----/14--14--(14)\-|
|----------------------------------------------|
|----------------------------------------------|
|----------------------------------------------|


                    D.S. al Coda
    e      e   S S  e   Q     Q
|--------------------------------||
|--------------------------------||
|---------11--11s9-11--11\---/7--||
|---------11--11s9-11--11\---/7--||
|--/9-------------------9\---/5--||
|--------------------------------||
|
|      ~~~          ~~
|   S  E.      E    E   Q     Q
|-----14-----------14-/14\--/10--||
|-/14--------/14------/14\--/10--||
|-/14--------/14------/14\--/10--||
|--------------------------------||
|--------------------------------||
|--------------------------------||

[ Tab from: http://www.guitartabs.cc/tabs/a/aerosmith/rag_doll_tab.html ]
  &
                                                          2/4
   S  S e Q  S S S S  S  E.     S  S e Q       E. S +Q      E. S +E    E
|----------------------------|---------------------------|-----------------||
|----------------------------|-----------------0--0-(0)--|--7--5-(5)-------||
|------------------------2---|-----------------0--1-(1)--|--7--6-(6)-------||
|------------0-1-2-3--4------|-----------------0--2-(2)--|--7--7-(7)-------||
|--0--1-2-2------------------|--0--1-2-2----------2-(2)--|--5--7-(7)---2s==||
|----------------------------|-----------------3--0-(0)--|-----5-(5)-------||
|
|                               ~~~                                  ~~
|  H.                +S  E S    Q.       +E    E. S +Q      E. S +S  E.
|-/5-----------------(5)-5s7-|----------------/3--0-(0)--|-----------------||
|-/5-----------------(5)-5s7-|----------------/3--0-(0)--|-----------------||
|-/5-----------------(5)-5s7-|----------------/3--0-(0)--|-10--5-(5)-------||
|-/5-----------------(5)-5s7-|-/7--------(7)\-/3--0-(0)--|-10--5-(5)-9s====||
|----------------------------|-/7--------(7)\------------|-----------------||
|----------------------------|---------------------------|-----------------||


 Guitar Solo
 4/4
  Gtr II
   ~~                                                                ~~~~~~~~
                                            |--3--|
   H           Q..                    S     S  S  S  e  S  S  a  S   S   +H
|---------------------------------------|-----------------------------------------|
|---------------------------------------|--14s13----13-14s12--------14--(14)------|
|-------------13s====================14-|--------13----------12s14-(14)-(14)------|
|-14------------------------------------|-----------------------------------------|
|---------------------------------------|-----------------------------------------|
|---------------------------------------|-----------------------------------------|
|
| Gtr I
|  E  E  S E.  S    S  S  S  +S   E.        E        E  E        E        Q    Q
|---------------------------------------|-----------------------------------------|
|---------------------------------------|-----------------------------------------|
|----11-11-9--11---11----11-(11)-11\----|-/11-------11-------------------11---13--|
|----11-11-9--11---11-13-11-(11)-11\----|-/11-------11-13-------13-------11---13--|
|--9-----------9----9--9--9--(9)--9\----|--/9--------9--9--------9--------9---11--|
|---------------------------------------|-----------------------------------------|


                      ~~~~
   a  E  S  S  a  S   E.     S  S  a  S   S   +S   S  +E
|-------------------------------------------------17-(17)/-|
|-15s17----15--------17-----17s15--------17--(17)----------|
|-------17----15s17-(17)----------15s17-(17)-(17)----------|
|----------------------------------------------------------|
|----------------------------------------------------------|
|----------------------------------------------------------|
|
|     E  E        E       E  E        E        E       E
|----------------------------------------------------------|
|----------------------------------------------------------|
|----14-14------------------14-------14--------------------|
|----14-14-------16------16-14-------14-------16------16---|
|----12-12-------12------12-12-------12-------12------12---|
|----------------------------------------------------------|


                ~~~             ~~~~~~~                       ~~~~         ~~
   E  S  S   S  E.     A  E  S  S  +E  E      E  A  E  A  S   E.  E  S  S  Q
|----17s15--------------------------------|-/14-----------------------------------|
|----------/17-17-----17s15---------------|-/14-14s12--------14-------------------|
|---------------------17s15----17-(17)-9/-|-----------12s14-(14)-14s12-12-14------|
|---------------------------17---------9/-|-------------------------------14------|
|-----------------------------------------|---------------------------------------|
|-----------------------------------------|---------------------------------------|
|
|  E  E      E      E     Q         Q         E     E     S   E.  E  E     S  E S
|-----------------------------------------|---------------------------------------|
|-----------------------------------------|----------------------------------11---|
|-14-14------------------14--------13-----|--------11----11s==9--11-11-------11-x-|
|-14-14-----16-----16----14--------13-----|--------11----11s==9--11-11-----x-11-x-|
|-12-12-----12-----12----12--------11-----|--/9-------------------9--9-----x--9-x-|
|-----------------------------------------|---------------------------------------|


                     ~~~
    S  S  S  S  +S   E.     a  e  S  S   E   S  S
|--------------------------------------------------|
|---------------------------------------14---------|
|--------------------------14s15-13s14-(14)-14s17--|
|--14s12----14-(14)-14-----------------------------|
|--------14----------------------------------------|
|--------------------------------------------------|
|
|   E     E      E       E     Q         Q
|--------------------------------------------------|
|--------------------------------------------------|
|-/11----11-------------------11--------13---------|
|-/11----11-----13------13----11--------13---------|
|--/9-----9------9-------9-----9--------11---------|
|--------------------------------------------------|


    ~~~~                                         ~~~~~~
    H             E  E  E  E    A  Q     E       E   Q   +E    E
|----------------------------|-----------------------------------|
|--17------------17s22-15s17-|------------------17--17--(17)\-14-|
|-(17)-----------------------|-17s15----17-----(17)--------------|
|----------------------------|----------17-----(17)--------------|
|----------------------------|-----------------------------------|
|----------------------------|-----------------------------------|
|
|   E   E  S  E.  E  E  E  E       E  E  S  E.       Q    Q
|----------------------------|-----------------------------------|
|----------------------------|-----------------------------------|
|--14--14-14p12--14-14-------|----14-14-------------14---13------|
|--14--14-14p12--14-14-16-16-|----14-14-16-16-------14---13------|
|--12--12--------12-12-12-12-|----12-12-12-12-------12---11------|
|----------------------------|-----------------------------------|


                          ~~
    E  E  S  E.  S  S  S  S  +E   E    a  S  S  S  S  S  S  E  Q     Q
|-/14-------------------------------|------------------------------------||
|-/14s11----14--14s12---------------|-------------------------14\--------||
|-----------14--14s12---------------|-12s14-13-14-13-14s12---------/10\--||
|--------14-----14s12----14-(14)s12-|----------------------14------/10\--||
|---------------------14------------|------------------------------------||
|-----------------------------------|------------------------------------||
|
|   E  E  S  E.  E     E      E   E       E     E     E     E  Q     Q
|-----------------------------------|------------------------------------||
|-----------------------------------|------------------------------------||
|--11-11--------11----11------------|----11----11-------------11-----7\--||
|--11-11-13-13--11----11-----13--13-|----11----11----13----13-11-----7\--||
|---9--9--9--9---9-----9------9---9-|-----9-----9-----9-----9--9-----5\--||
|-----------------------------------|------------------------------------||


 3rd Verse
  Gtr I
    E  e S E. S S  S S  +E     S S
|----------------------------------|
|----------------------------------|
|------9-9p7--9-9-11-9--(9)\-------|
|------9-9p7--9-9-11-9--(9)\-------|
|--/7----------------------------5s|
|----------------------------------|
|
| Gtr II
|   ~~~~
|   H.                  +S   E.
|----------------------------------|
|----------------------------------|
|----------------------------------|
|-/12------------------(12)--7s====|
|----------------------------------|
|----------------------------------|


   E e S E.   S  S  S S +S E.    E  e S E. S S  S S +S  E.
|-----------------------------|----------------------------|
|-----------------------------|----------------------------|
|----9-9p7----9--9-11-9-(9)9\-|----------------------------|
|----9-9p7----9--9-11-9-(9)9\-|-----9-9-7--9-9-11-9-(9)-9--|
|--7--------------------------|-----9-9-7--9-9-11-9-(9)-9--|
|-----------------------------|-/7---------7------7-(7)-7--|
|
|  ~~                            ~~~
|  H         +E     E    Q       H.                  S  E.
|-----------------------------|----------------------------|
|-----------------------------|----------------------------|
|------------------12---------|----------------------x-----|
|-12--------(12)---12----2s===|==7-------------------x--2s=|
|-----------------------------|----------------------x-----|
|-----------------------------|----------------------------|


  e  e S E. S S  S S +S  E S    E  e S E. S S  S S  +S  E.
|----------------------------|----------------------------|
|----------------------------|----------------------------|
|----------------------------|-----9-9p7--9-9-11-9--(9)-9\|
|----9-9p7--9-9-11-9-(9)-9---|-----9-9p7--9-9-11-9--(9)-9\|
|----9-9p7--9-9-11-9-(9)-9-6s|==7-------------------------|
|-7---------7----------------|----------------------------|
|
| ~~                            ~~~
| H.                 +S  E.     H.                  +S  E.
|----------------------------|----------------------------|
|----------------------------|----------------------------|
|------------------------7s==|=12------------------(12)-7s|
|-7------------------(7)-7s==|=12------------------(12)-7s|
|----------------------------|----------------------------|
|----------------------------|----------------------------|


   e  e S E. S S  S S  +S   E  S
|--------------------------------|
|--------------------------------|
|-----9-9p7--9-9-11-9--(9)--9----|
|-----9-9p7--9-9-11-9--(9)--9--x-|
|--7---------------------------x-|
|--------------------------------|
|
|  ~~~
|  H.                  +S   E.
|--------------------------------|
|--------------------------------|
|-12------------------(12)-------|
|-12------------------(12)-12----|
|--------------------------------|
|--------------------------------|


    e  e      S  E.    S  S  S   S  +S   E.
|------------------------------------------------|
|------------------------------------------------|
|-----11-----11--9----11-11-13--11-(11)-11\------|
|-----11-----11--9----11-11-13--11-(11)-11\------|
|--/9------------------9--9--9---9--(9)--9\------|
|------------------------------------------------|
|
|   e  S  S   S  E  S  E     E       S   S  S  S
|------------------------------------------------|
|-----------/14-14/---14----14\----/14--14-------|
|-/14-------/14-14/---14----14\----/14--14----14-|
|-/14-14s13--------------------------------------|
|------------------------------------------------|
|------------------------------------------------|


    e   e     S  S  e     Q        Q
|----------------------------------------||
|----------------------------------------||
|------11----11s=9-11----11\------/7-----||
|------11----11s=9-11----11\------/7-----||
|--/9---------------------9\------/5-----||
|----------------------------------------||
|
|   E   S  S  S  E     S  E   E    E   E
|--------------------------------/10-/10-||
|--14----------------------------/10-/10-||
|-(14)-------14s13s===14-14--14\-/10-/10-||
|------12s14-14s13s===14-14--14\---------||
|----------------------------------------||
|----------------------------------------||


 Chorus
   S  S e E E S S S S  S  E.   S S e E E S S S S S E.
|---------------------------|-------------------------|
|---------------------------|-------------------------|
|-------------------------2-|----------------------2--|
|-------------0-1-2-3--4----|------------0-1-2-3-4----|
|--0--1-2-2-2---------------|--0-1-2-2-2--------------|
|---------------------------|-------------------------|
|
|  ~~~                         ~~~~~~~~~~~~~~~~~~~~~~~~
|  H.                 +S  E.   W
|---------------------------|-------------------------|
|---------------------------|-------------------------|
|---------------------------|-------------------------|
|-/7------------------(7)-7S|=10----------------------|
|-------------------------7S|=10----------------------|
|---------------------------|-------------------------|


   S   S e E E S S S S S E.
|------------------------------|
|------------------------------|
|------------------------2-----|
|--------------0-1-2-3-4-------|
|--0---1-2-2-2-----------------|
|------------------------------|
|
|~~~~~~
|  H..                      E
|-/5------------------------5/-|
|-/5------------------------5/-|
|-/5------------------------5/-|
|-/5------------------------5/-|
|------------------------------|
|------------------------------|


  S S e Q   E. S +Q      S   S e E E S S S S S E.
|---------------------|-----------------------------|
|-----------0--0-(0)--|-----------------------------|
|-----------0--1-(1)--|------------------------2----|
|-----------0--2-(2)--|--------------0-1-2-3-4------|
|-0-1-2-2------2-(2)--|--0---1-2-2-2----------------|
|-----------3--0-(0)--|-----------------------------|
|
|       ~
| Q     Q   E. S +Q      H..                      E
|----------/3--0-(0)--|-----------------------------|
|----------/3--0-(0)--|-----------------------------|
|-5s====7--/3--0-(0)--|-----------------------------|
|-5s====7--/3--0-(0)--|-/7------------------------7-|
|---------------------|-/7------------------------7-|
|---------------------|-----------------------------|


    S  S e E E S S S S   S   E.
|-------------------------------|
|-------------------------------|
|----------------------------2--|
|--------------0-1-2-3---4------|
|---0--1-2-2-2------------------|
|-------------------------------|
|
|   ~~~~
|   H.                  +S   E.
|-------------------------------|
|-------------------------------|
|-------------------------------|
|-/10------------------(10)-10\-|
|-/10------------------(10)-10\-|
|-------------------------------|


                                                           2/4
   S  S e E E S S S S  S  E.     S  S e Q       E. S +Q      E. S +Q
|-----------------------------|---------------------------|----------------|
|-----------------------------|-----------------0--0-(0)--|--7--5-(5)------|
|-------------------------2---|-----------------0--1-(1)--|--7--6-(6)------|
|-------------0-1-2-3--4------|-----------------0--2-(2)--|--7--7-(7)------|
|--0--1-2-2-2-----------------|--0--1-2-2----------2-(2)--|--5--7-(7)------|
|-----------------------------|-----------------3--0-(0)--|-----5-(5)------|
|
|                                ~~~
|  H.                 +S  E S    Q.       +E    E. S +Q      E. S +E  +E
|-/5------------------(5)-5s7-|----------------/3--0-(0)--|----------------|
|-/5------------------(5)-5s7-|----------------/3--0-(0)--|----------------|
|-/5------------------(5)-5s7-|----------------/3--0-(0)--|-10\-5-(5)-(5)/-|
|-/5------------------(5)-5s7-|-/7--------(7)\-/3--0-(0)--|-10\-5-(5)-(5)/-|
|-----------------------------|-/7--------(7)\------------|----------------|
|-----------------------------|---------------------------|----------------|


 4/4
   S  S e E E S S S S  S  E.   S S e E E S S S S S E.
|---------------------------|-------------------------|
|---------------------------|-------------------------|
|-------------------------2-|----------------------2--|
|-------------0-1-2-3--4----|------------0-1-2-3-4----|
|--0--1-2-2-2---------------|--0-1-2-2-2--------------|
|---------------------------|-------------------------|
|
|  ~~~                         ~~~~~~~~~~~~~~~~~~~~~~~~
|  H.                 +S  E.   W
|---------------------------|-------------------------|
|---------------------------|-------------------------|
|---------------------------|-------------------------|
|-/7------------------(7)-7S|=10----------------------|
|-------------------------7S|=10----------------------|
|---------------------------|-------------------------|


   S   S e E E S S S S S E.
|-------------------------------|
|-------------------------------|
|------------------------2------|
|--------------0-1-2-3-4--------|
|--0---1-2-2-2------------------|
|-------------------------------|
|
|~~~~~~
|  H..                      E
|-/5------------------------5/--|
|-/5------------------------5/--|
|-/5------------------------5/--|
|-/5------------------------5/--|
|-------------------------------|
|-------------------------------|


  S S e Q   E. S +Q      S   S e E E S S S S S E.
|---------------------|-----------------------------|
|-----------0--0-(0)--|-----------------------------|
|-----------0--1-(1)--|------------------------2----|
|-----------0--2-(2)--|--------------0-1-2-3-4------|
|-0-1-2-2------2-(2)--|--0---1-2-2-2----------------|
|-----------3--0-(0)--|-----------------------------|
|
|       ~
| Q     Q   E. S +Q      H..                      E
|----------/3--0-(0)--|-----------------------------|
|----------/3--0-(0)--|-----------------------------|
|-5s====7--/3--0-(0)--|-----------------------------|
|-5s====7--/3--0-(0)--|-/7------------------------7-|
|---------------------|-/7------------------------7-|
|---------------------|-----------------------------|


    S  S e E E S S S S   S   E.
|-------------------------------|
|-------------------------------|
|----------------------------2--|
|--------------0-1-2-3---4------|
|---0--1-2-2-2------------------|
|-------------------------------|
|
|   ~~~~
|   H.                  +S   E.
|-------------------------------|
|-------------------------------|
|-------------------------------|
|-/10------------------(10)-10\-|
|-/10------------------(10)-10\-|
|-------------------------------|


                                                           2/4
   S  S e E E S S S S  S  E.     S  S e Q       E. S +Q      E. S +Q
|-----------------------------|---------------------------|------------|
|-----------------------------|-----------------0--0-(0)--|--7--5-(5)--|
|-------------------------2---|-----------------0--1-(1)--|--7--6-(6)--|
|-------------0-1-2-3--4------|-----------------0--2-(2)--|--7--7-(7)--|
|--0--1-2-2-2-----------------|--0--1-2-2----------2-(2)--|--5--7-(7)--|
|-----------------------------|-----------------3--0-(0)--|-----5-(5)--|
|
|                                ~~~
|  H.                 +S  E S    Q.       +E    E. S +Q      E. S +Q
|-/5------------------(5)-5s7-|----------------/3--0-(0)--|------------|
|-/5------------------(5)-5s7-|----------------/3--0-(0)--|-10--5-(5)--|
|-/5------------------(5)-5s7-|----------------/3--0-(0)--|-10--5-(5)--|
|-/5------------------(5)-5s7-|-/7--------(7)\-/3--0-(0)--|-10--5-(5)--|
|-----------------------------|-/7--------(7)\------------|------------|
|-----------------------------|---------------------------|------------|


 4/4
  +W                +W
|----------------|--------------------------------|
|-(5)------------|--(5)---------------------------|
|-(6)------------|--(6)---------------------------|
|-(7)------------|--(7)---------------------------|
|-(7)------------|--(7)---------------------------|
|-(5)------------|--(5)---------------------------|
|
|                    ~~~~                      ~~~~
| +Q.   E Q.   E    +H      S  S  S  S  S  S   E
|----------------|--------------------------------|
|-(5)------------|--------------------------------|
|-(5)---3s5s==13-|-(13)-------------17s15-----17--|
|-(5)------------|---------15-16-17-------17-(17)-|
|----------------|--------------------------------|
|----------------|--------------------------------|


   +W
|------------------------------------------------|
|--(5)-------------------------------------------|
|--(6)-------------------------------------------|
|--(7)-------------------------------------------|
|--(7)-------------------------------------------|
|--(5)-------------------------------------------|
|
|~~~~~~          ~~~
|  +E   S  S  S  E.  +E   S  S  a  S  S  a  S  S
|------------------------------------------------|
|------------------------------------------------|
|-(17)-15-------17--(17)-------------------------|
|-(17)-15-------17--(17)-------16s17----17s15s17-|
|---------15s17----------17s16-------17----------|
|------------------------------------------------|


  +W                                       W
|---------------------------------------|-------------|
|-(5)-----------------------------------|-------------|
|-(6)-----------------------------------|-------------|
|-(7)-----------------------------------|-------------|
|-(7)-----------------------------------|-------------|
|-(5)-----------------------------------|-------------|
|
|  S   S  S  S  S  a  E  S  E  S  S  Q     H.      Q
|---------------------------------------|-------------|
|---------------------------------------|-------------|
|--------15-17----16-17-16-17----17-17--|-17----------|
|-17-----15-17----16-17-16-17----17-17--|-17----------|
|-----17-------17-------------17--------|-------------|
|---------------------------------------|-------------|


  W          Wx6
|----------|--------*|
|----------|--------*|
|----------|--------*|
|----------|--------*|
|----------|--------*|
|----------|--------*|




--------------------------------------------------------------------------------


Duration Legend
---------------
W - whole; H - half; Q - quarter; E - 8th; S - 16th; T - 32nd; X - 64th; a - acciaccatura
+ - note tied to previous; . - note dotted; .. - note double dotted
Uncapitalized letters represent notes that are staccato (1/2 duration)
Irregular groupings are notated above the duration line
Duration letters will always appear directly above the note/fret number it represents the
duration for.  Duration letters with no fret number below them represent rests.  Multi-
bar rests are notated in the form Wxn, where n is the number of bars to rest for.  Low
melody durations appear below the staff

Tablature Legend
----------------
 h   - hammer-on
 p   - pull-off
 b   - bend
 pb  - pre-bend
 r   - bend release (if no number after the r, then release immediately)
 /\  - slide into or out of (from/to "nowhere")
 s   - legato slide
 S   - shift slide
 - natural harmonic
[n]  - artificial harmonic
n(n) - tapped harmonic
 ~   - vibrato
 tr  - trill
 T   - tap
 TP  - trem. picking
 PM  - palm muting
\n/  - tremolo bar dip; n = amount to dip
 \n  - tremolo bar down
 n/  - tremolo bar up
/n\  - tremolo bar inverted dip
 =   - hold bend; also acts as connecting device for hammers/pulls
  - volume swell (louder/softer)
 x   - on rhythm slash represents muted slash
 o   - on rhythm slash represents single note slash


nitin@bikerider.com
Comments