Aerosmith - Last Child Chords & Tabs

 

Last Child Chords & Tabs

Aerosmith Chords & Tabs

Version: 5 Type: Tab 0 ratings
1 star 2 stars 3 stars 4 stars 5 stars
comments

Last Child Tab

Intro:
|------------------|----------------|-----3-----3------|-----3----|
|-----6-5---6------|---6-5---6------|---3---5-----3----|---3---5--|
|---7---------7----|--7--------7----|------------------|----------|
|-7-------------7--|-7-----------7--|-5-------------5--|-5--------|
|------------------|----------------|------------------|----------|
|------------------|----------------|------------------|----------|

---3-------|-----4---4------|-----4---4------|-4--5--6----|
-----3-----|---3--5----3----|---3--5----3----|-3--4--5----|
-----------|-4-----------4--|-4-----------4--|-4--5--6----|
--------5--|----------------|-----------------------------|
-----------|----------------|-----------------------------|
-----------|----------------|-----------------------------|

|------------------------|
|---Repeat 2 times for --|
|---------intro ---------|
|-----------------------2|
|--2--4--5--4--2--4--5---|
|------------------------|

Verse Position
Rhy 1

  Take me back to a south Tallahassee
|-----------------------------------||-----------------------------------|
|-----------------------------------||-----------------------------------|
|-----------------------------------||-----------------------------------|
|----------------------------------2||----------------------------------2|
|--2---4----5----4----2----4----5---||--2---4----5----4----2----4----5---|
|-----------------------------------||-----------------------------------|

Verse

Take me back to a south Tallahassee
Down cross the bridge to my sweet sassafrassy
Can't stand up on my feet in the city
Gotta get back to the real nitty gritty

For Second Verse, Play This
Rhy 2
 Yes sir no  sir Don't come close to my
|---------------------------------------|
|---------------------------------------|
|---------------------------------------|
|-5-/-7---4-/-5----2--h-4-----0---h2-p0-|
|-0-------0--------0----------0---------|
|---------------------------------------|

Second Verse

Yes sir no sir
Don't come close to my
Home sweet home
Can't catch no dose
Of my hot tail poon tang sweetheart
Sweathog ready to make a silk purse
From a J. Paul Getty and his ear
With her face in her beer

At "and his ear," start back to Rhy 1 and repeat twice

Chorus

    Home______                 Sweet_______
|---------------------------|----------------------------|
|---------------------------|----------------------------|
|---9b11==(9)r(9)p=7--9--7--|----------------------------|
|---0-----(0)-(0)-(0)-0--0--|---9b11==(9)r(9)p=7----9--5-|
|---------------------------|---0-----(0)-(0)-(0)---0--0-|
|---------------------------|----------------------------|

Home______

|------------------------|
|-----Repeat 2 times-----|
|------------------------|
|-----------------------2|
|--2--4--5--4--2--4--5---|
|------------------------|

Solo

|-----------------------------------------------|
|----------------------------------------15b17--|
|-13-14-13-14-13-14-13-14-13-14-13-14s13--------|
|-12-12-12-12-12-12-12-12-12-12-12----12--------|
|-----------------------------------------------|
|-----------------------------------------------|

|---------------------------------------------|
|---------------------------------------15b17-|
|-13-14-13-14-13-14-13-14-13-14-13-14-x-------|
|-12-12-12-12-12-12-12-12-12-12-12-12-x-------|
|---------------------------------------------|
|---------------------------------------------|

|-10s12---------12-12----12----------------12-----------------------|
|-------15b17------15b17----15p12-------12----12--------------------|
|---------------------------------14b15----------14-12b12.5---------|
|-------------------------------------------------0---------14--14--|
|-------------------------------------------------------------------|
|-------------------------------------------------------------------|
[ Tab from: http://www.guitartabs.cc/tabs/a/aerosmith/last_child_tab_ver_5.html ]
|--------------------------------------------|
|------------------------------------------9-|
|-----------9-9-9----9-12p9----9---9-------9-|
|-14s(4)s11-------11--------11----------11---|
|--------------------------------------------|
|--------------------------------------------|

|-------15----17b19----(17)r(17)-15-----------17b19==(17)r-|
|----------15-----------------------15-15-15---------------|
|-12s16----------------------------------------------------|
|----------------------------------------------------------|
|----------------------------------------------------------|
|----------------------------------------------------------|

|-17b19----(17)r(17)p15----15----------------------------------|
|-----------------------15----17-17-15h17-15-15----------------|
|-----------------------------------------16----16-14s13-------|
|--------------------------------------------------------14----|
|--------------------------------------------------------------|
|--------------------------------------------------------------|

|-----------------------------------------------------|
|-15-14--------15p=14------15p14----15p14----15p14----|
|-------14-------------14--------14-------14-------14-|
|-----------------------------------------------------|
|-----------------------------------------------------|
|-----------------------------------------------------|

|---------------------------------------|
|-12--------------------------12-14--15-|
|------12b14------------12h13-----------|
|------------14-14-(14)-----------------|
|---------------------------------------|
|---------------------------------------|

|----------------------------------------------------|
|---12-14-15---x-15p14p12----12----------------------|
|-------------------------12----12b13----------14p12-|
|---------------------------------------14-12--------|
|----------------------------------------------------|
|----------------------------------------------------|

|------------------------------------|-----------------------------------||
|-15b17==(15)r===(15)b17==(15)-------|-(15)-------------------(15)r---sx\||
|------------------------------------|----------------------------xsx\---||
|------------------------------------|-----------------------------------||
|------------------------------------|-----------------------------------||
|------------------------------------|-----------------------------------||

Outro

|----------------------------------------|---------------------------------|
|---------15b17==(15)r-------15p12-------|---------------x/----------------|
|-----------------------------------12b13|=(12)r---------x/----------------|
|----------------------------------------|-------14\-----x/----------------|
|----------------------------------------|---------------------------------|
|----------------------------------------|---------------------------------|

|---------------------------------------------------------------|
|-x-----------------------12b13==(12)r---12-12------------------|
|-x-12b12.5====(12)r---12-12b14==(12)r---12-12b14==(12)r--------|
|-x-12b12.5====(12)r---12--------------------------------14-14--|
|---------------------------------------------------------------|
|---------------------------------------------------------------|

|----------------------------|
|----------------------------|
|----------------------------|
|-(14)\----------------------|
|----------------------------|
|----------------------------|

|---------------12----------15b17-15--|-------------------------|
|-----15b17--------15-12--------------|-------------------------|
|------------------------12-----------|-------------------------|
|-------------------------------------|-------------------------|
|-------------------------------------|-------------------------|
|-------------------------------------|-------------------------|

|---15-15-15-15-15-15-15-15-15-15-15-15-15--15-|
|----x--x--x--x--x--x--x--x--x--x--x--x--x---x-|
|---12-12-12-12-12-12-12-12-12-12-12-12-12--12-|
|----------------------------------------------|
|----------------------------------------------|
|----------------------------------------------|

Enjoy

Thanks to Mike Guitar site
Comments