Aerosmith - Last Child Chords & Tabs

 

Last Child Chords & Tabs

Aerosmith Chords & Tabs

Version: 4 Type: Tab 0 ratings
1 star 2 stars 3 stars 4 stars 5 stars
comments

Last Child Tab

   
     Last Child
     Aerosmith
     Tabbed by: ????
[ Tab from: http://www.guitartabs.cc/tabs/a/aerosmith/last_child_tab_ver_4.html ]
     Im not sure this is the right way, im just guessing
It starts out like:
e-------0--------------0--------------0-------------0----------|
b-----6-----6--------6----6---------9----9---------9---9-10-11-|
g---7---------7----7--------7-----7--------7-----7-----7--9-10-|
d-7------------7--------------7-9------------9---------9-10-11-|
a----------------7-----------------------------7---------------|
e--------------------------------------------------------------|
Then it goes like this(repeat as many times as needed)
e---------------------------|
b---------------------------|
g---------------------------|
d---------------------2-----|
a--2-4--5-4--4-5-4--5-------|
e-0-------------------------|

Then in the chorus part:(repeat as many times as needed)
d-7-7-7-7-|
a-7-7-7-7-|
e-5-5-5-5-|
top three strings not needed
Comments