Aerosmith - Last Child Chords & Tabs

 

Last Child Chords & Tabs

Aerosmith Chords & Tabs

Version: 1 Type: Tab 4 ratings
1 star 2 stars 3 stars 4 stars 5 stars
comments

Last Child Tab

                          Last Child by
                           Aerosmith

|-------------------------|-----------------------|---------
|---------5--4---5--------|--------5--4--5--------|---------
|------6------------6-----|-----6-----------6-----|---------
|---6------------------6--|--6-----------------6--|--4------
|-------------------------|-----------------------|---------
|-------------------------|-----------------------|---------
                                                            
[ Tab from: http://www.guitartabs.cc/tabs/a/aerosmith/last_child_tab.html ]
                                                            
---2-----2--------|--------2-----2--------|--------3--------
2-----4-----4-----|-----2-----4-----2-----|-----2-----4-----
------------------|-----------------------|--3--------------
---------------4--|--4-----------------4--|-----------------
------------------|-----------------------|-----------------
------------------|-----------------------|-----------------
                                                            
                                            Repeat with first
                                            part of the verse.  
                                                            
3--------|--------3-----3--4--5--|
---2-----|-----2-----4--2--3--4--|
------3--|--3-----------3--4--5--|
---------|-----------------------|
---------|-----------------------|
---------|-----------------------|

This part is basically played throughout the entire song

|----------------------------------|
|----------------------------------|
|----------------------------------|
|---1--1--3-----4--3--1--3--4--6---|
|----------------------------------|
                                                            

                       
                                    







Comments