Aerosmith - Kings And Queens Chords & Tabs

 

Kings And Queens Chords & Tabs

Aerosmith Chords & Tabs

Version: 2 Type: Bass Tab 0 ratings
1 star 2 stars 3 stars 4 stars 5 stars
comments

Kings And Queens Bass Tab

Song Title: Kings and Queens
Artist: Aerosmith
----------------------------------------------

Fig. 1
|-------------------------------------------------------------------------------|
|-------------------------------------------------------------------------------|
|--------------------4--5-5-5-5-5-5-5-5----------------------5--4-4-4-4-4-4-4-4-|
|-2--2-2-2-2-2-2-2-2----------------------2--3-3-3-3-3-3-3-3--------------------|

|-------------------------------------------------------------------------------|
|-3-3-3-3-3-3-3-3---------------------------------------------------------------|
|---------------------------------4--5-5-5-5-5-5-5-5----------------------------|
|-----------------2-2-2-2-2-2-2-2--------------------2--3-3-3-3-3-3-3-3---------|

|-------------------------------------------------------------------------------|
|-------------------------------------------------------------------------------|
|-------------------------------------------------------------------------------|
|-5-5-5-5-5-5-5-5-5-7-7-7-7-7-7-7-7-7-7-7-7-7-7-7-7-7-7-9-9-9-9-9-9-9-9-9-9-9-9-|


Fig. 2

|-------------------------------------------------------------------------------|
|-------------------------------------------------------------------------------|
|-------------------------7--5--5--5--5--5--5--5--5--7--------------------------|
|-2--2--2--2--2--2--2--2--------------------------------2--2--2--2--2--2--2--2--|

|-------------------------------------------------------------------------------|
|-------------------------------------------------------------------------------|
|-7--5--5--5--5--5--5--5--5--7-------------------------7-5--5--5--5--5--5--5--5-|
|-------------------------------2--2--2--2--2--2--2--2--------------------------|
[ Tab from: http://www.guitartabs.cc/tabs/a/aerosmith/kings_and_queens_btab_ver_2.html ]
                       x2                        fill 1
|-------------------------|    |-----------------------|
|-------------------------|    |-----------------------|
|-4-4-4-4-4-4-4-4-4-4-4-4-|    |--4--------------------|
|-------------------------|    |-------7-----5----2----|

|-----------------------|
|    Play Figure One    |
|                       |
|-----------------------|

|---------------------------------------------------------------------------------|
|*--------------------------------------------------------------------------------|
|*--------------------------------------------------------------------------------|
|-2-2-2-2-2-2-2-2-2-2-2-2-2-2-2-2-7-7-7-7-7-7-7-7-7-7-7-7-7-7-7-7-4-4-4-4-4-4-4-4-|

|-------------------------------------------------|   Repeat 2x
|-------------------------------------------------|
|-------------------------------------------------|
|-5-5-5-5-5-5-5-5-2-2-2-2-2-2-2-2-2-2-2-2-2-2-2-2-|
                        played only first time

|-----------|    
|play fill 1|
|-----------|
|-----------|

 Fig. 3
|--11----13----11---------------|
|-----12----------12-0----14----|  Play it 2x
|----------------------12-------|
|-------------------------------|

	Fig. 4
|--------------------------------|  |-----------------------|  |------------|
|-12------10--9--8--0------------|  | play fig.3 then fig.4 |  | play fig.3 |
|----12-0-------------12--11--10-|  |      three times      |  |            |
|--------------------------------|  |-----------------------|  |------------|

|-----------------------------------------------------------|
|--12-------------------------------10--9--8--0-------------|
|-----12-0-9-9-9-9-9-9-9-9-9-9-9-9--------------12--11--10--|
|-----------------------------------------------------------|

|-----------------|   |---------------|
|  play fig. 2    |   |---------------|
|                 |   |---------------|
|-----------------|   |--5----7----2--|

Thatīs it. 

Enjoy your playing.

VS


Submitted by:  Jorge E. Maycotte (al587760@campus.cegs.itesm.mx)
Comments